Oops, an error
Loading. Please wait.

Dont You Just Know It Bass Tab

16 views 1 this week
no commentswrite comment
1 2 3 4 5
3 more votes to show rating
add to favorites
launch autoscroll
font size
0
reset
guitar tuner
Autoscroll
slow
fast
+/-
esc
set tempo
stop
Help us to improve Ultimate-Guitar.com Take our survey!
×
Author
Difficulty
Chorus ("Ha, Ha, Ha, Hah...")
G|------------------------------------------------------------------------------------|
D|------------------------------------------------------------------------------------|
A|----1--2--3--3-3-3-3--3-3-3-3--3-3-3-3--3-3-3-3--3-3-3-3--3-3-3-3--3-3-3-3--3-3-3-3-|
E|-3----------------------------------------------------------------------------------|

G|-------------------------------------------------------------------------|
D|-3-3-3-3--3-3-3-3--3-3-3-3--3-3-3-3--------------------------------------|
A|-------------------------------------3-3-3-3--3-3-3-3--3-3-3-3--3-3-3-3--|
E|-------------------------------------------------------------------------|

G|-----------------------------------------------------------|
D|-5-5-5-5--5-5-5-5--3-3-3-3--3-3-3-3------------------------|
A|-------------------------------------3-3-3-3--3-3-3-3--3---|
E|-----------------------------------------------------------|


Verse ("My Pretty Baby's Got Two Left Feet...")
G|------------------------------------------------------------------------------------|
D|------------------------------------------------------------------------------------|
A|----1--2--3--3-3-3-3--3-3-3-3--3-3-3-3--3-3-3-3--3-3-3-3--3-3-3-3--3-3-3-3--3-3-3-3-|
E|-3----------------------------------------------------------------------------------|

G|------------------------------------------------------------|
D|------------------------------------------------------------|
A|--3-3-3-3--3-3-3-3--3-3-3-3--3-3-3-3--3-3-3-3--3-3-3-3--3---|
E|------------------------------------------------------------|


Chorus ("Ha, Ha, Ha, Hah...")
G|------------------------------------------------------------------------------------|
D|------------------------------------------------------------------------------------|
A|----1--2--3--3-3-3-3--3-3-3-3--3-3-3-3--3-3-3-3--3-3-3-3--3-3-3-3--3-3-3-3--3-3-3-3-|
E|-3----------------------------------------------------------------------------------|

G|-------------------------------------------------------------------------|
D|-3-3-3-3--3-3-3-3--3-3-3-3--3-3-3-3--------------------------------------|
A|-------------------------------------3-3-3-3--3-3-3-3--3-3-3-3--3-3-3-3--|
E|-------------------------------------------------------------------------|

G|-----------------------------------------------------------|
D|-5-5-5-5--5-5-5-5--3-3-3-3--3-3-3-3------------------------|
A|-------------------------------------3-3-3-3--3-3-3-3--3---|
E|-----------------------------------------------------------|


Verse ("Hey Pretty Baby Can We Go Strollin'...")
G|------------------------------------------------------------------------------------|
D|------------------------------------------------------------------------------------|
A|----1--2--3--3-3-3-3--3-3-3-3--3-3-3-3--3-3-3-3--3-3-3-3--3-3-3-3--3-3-3-3--3-3-3-3-|
E|-3----------------------------------------------------------------------------------|

G|------------------------------------------------------------|
D|------------------------------------------------------------|
A|--3-3-3-3--3-3-3-3--3-3-3-3--3-3-3-3--3-3-3-3--3-3-3-3--3---|
E|------------------------------------------------------------|


Chorus ("Ha, Ha, Ha, Hah...")
G|------------------------------------------------------------------------------------|
D|------------------------------------------------------------------------------------|
A|----1--2--3--3-3-3-3--3-3-3-3--3-3-3-3--3-3-3-3--3-3-3-3--3-3-3-3--3-3-3-3--3-3-3-3-|
E|-3----------------------------------------------------------------------------------|

G|-------------------------------------------------------------------------|
D|-3-3-3-3--3-3-3-3--3-3-3-3--3-3-3-3--------------------------------------|
A|-------------------------------------3-3-3-3--3-3-3-3--3-3-3-3--3-3-3-3--|
E|-------------------------------------------------------------------------|

G|-----------------------------------------------------------|
D|-5-5-5-5--5-5-5-5--3-3-3-3--3-3-3-3------------------------|
A|-------------------------------------3-3-3-3--3-3-3-3--3---|
E|-----------------------------------------------------------|


Organ Solo 
G|------------------------------------------------------------------------------------|
D|------------------------------------------------------------------------------------|
A|----1--2--3--3-3-3-3--3-3-3-3--3-3-3-3--3-3-3-3--3-3-3-3--3-3-3-3--3-3-3-3--3-3-3-3-|
E|-3----------------------------------------------------------------------------------|

G|-------------------------------------------------------------------------|
D|-3-3-3-3--3-3-3-3--3-3-3-3--3-3-3-3--------------------------------------|
A|-------------------------------------3-3-3-3--3-3-3-3--3-3-3-3--3-3-3-3--|
E|-------------------------------------------------------------------------|

G|-----------------------------------------------------------|
D|-5-5-5-5--5-5-5-5--3-3-3-3--3-3-3-3------------------------|
A|-------------------------------------3-3-3-3--3-3-3-3--3---|
E|-----------------------------------------------------------|


Verse ("My Pretty Baby She Looks So Fine...")
G|------------------------------------------------------------------------------------|
D|------------------------------------------------------------------------------------|
A|----1--2--3--3-3-3-3--3-3-3-3--3-3-3-3--3-3-3-3--3-3-3-3--3-3-3-3--3-3-3-3--3-3-3-3-|
E|-3----------------------------------------------------------------------------------|

G|------------------------------------------------------------|
D|------------------------------------------------------------|
A|--3-3-3-3--3-3-3-3--3-3-3-3--3-3-3-3--3-3-3-3--3-3-3-3--3---|
E|------------------------------------------------------------|


Final Chorus ("Ha, Ha, Ha, Hah...")
G|------------------------------------------------------------------------------------|
D|------------------------------------------------------------------------------------|
A|----1--2--3--3-3-3-3--3-3-3-3--3-3-3-3--3-3-3-3--3-3-3-3--3-3-3-3--3-3-3-3--3-3-3-3-|
E|-3----------------------------------------------------------------------------------|

G|-------------------------------------------------------------------------|
D|-3-3-3-3--3-3-3-3--3-3-3-3--3-3-3-3--------------------------------------|
A|-------------------------------------3-3-3-3--3-3-3-3--3-3-3-3--3-3-3-3--|
E|-------------------------------------------------------------------------|

G|-----------------------------------------------------------|
D|-5-5-5-5--5-5-5-5--3-3-3-3--3-3-3-3------------------------|
A|-------------------------------------3-3-3-3--3-3-3-3--3---|
E|-----------------------------------------------------------|

G|-----------------------------------------------------------|
D|-5-5-5-5--5-5-5-5--3-3-3-3--3-3-3-3------------------------|
A|-------------------------------------3-3-3-3--3-3-3-3--3---|
E|-----------------------------------------------------------|
Suggest correction
Give kudos to tab author, rate the tab!
1 2 3 4 5
comments
print report bad tab
guest
You may want to rate the tab now too:
select rating
Wanna post a correction for this tab? Suggest correction