Oops, an error
Loading. Please wait.

Just Be Good To Me Bass Tab

4,718 views 15 this week
no commentswrite comment
1 2 3 4 5
please rate
add to favorites
launch autoscroll
font size
0
reset
guitar tuner
Autoscroll
slow
fast
+/-
esc
set tempo
stop
Help us to improve Ultimate-Guitar.com Take our survey!
×
Author
This is just the main riff that plays throughout the song, there are a few different 
fills and variations but I decided to kept it basic, feel free to improvise! ;p

G|-----------9--9-9--7--7-7------------|
D|---------------------------7p5-7h5---|
A|----7--7-7---------------------------|  X 4
E|-------------------------------------|

G|-----------7--7-7--5--5-5------------|
D|---------------------------5-7-5-----|
A|----5--5-5---------------------------|  X 2
E|-------------------------------------|

G|-----------9--9-9--7--7-7------------|
D|---------------------------7p5-7h5---|
A|----7--7-7---------------------------|
E|-------------------------------------|

G|----------6-----7----8---------------|
D|---2---------------------------------|
A|-------4-----5----6------------------|
E|-0-----------------------------------|

Enjoy the groove!
Suggest correction
Give kudos to tab author, rate the tab!
1 2 3 4 5
comments
print report bad tab
guest
You may want to rate the tab now too:
select rating
Wanna post a correction for this tab? Suggest correction