Oops, an error
Loading. Please wait.

Take Your Time Bass Tab

4,640 views 15 this week
no commentswrite comment
1 2 3 4 5
accurate
x 3
add to favorites
launch autoscroll
font size
0
reset
guitar tuner
Tab Pro tools
  • play this tab
  • loop segment
  • change instrument
  • show fretboard
  • metronome
×
Best way to learn
"Take Your Time"
Autoscroll
slow
fast
+/-
esc
set tempo
stop
Contributor
Difficulty
novice
Here's an update with the verse riff too.

Chorus riff

G|------------------------------------------------|
D|------------------------------------------------|
A|--7-5---------------7------------------5--------|
E|--------7-5-0---5-8-----8--8-5-8---5-8----------|

Verse riff

G|---------------------------------------|
D|--------------------5---2-2------------|
A|--5-7----5-7---3-----------------------|
E|---------------------------------------|
					


http://en.wikipedia.org/wiki/The_SOS_Band
comments
We did not receive enough feedback on this tab! Please rate:
print report bad tab
1 2 3 4 5
I want to post or [tab]
guest
You may want to rate the tab now too:
select rating
Please do not post tabs as comments. Select "correction" instead!