Oops, an error
Loading. Please wait.

Hour Of Need tab

76 views 1 this week
no commentswrite comment
1 2 3 4 5
3 more votes to show rating
add to favorites
×
Save as Personal and add changes to this tab that will be seen only by you. Learn more ›
×
You can save this tab as Personal to edit and correct it or add notes. All changes will be seen only by you. Learn more »
launch autoscroll
font size
0
reset
how to read this tab
guitar tuner
edit
Autoscroll
slow
fast
+/-
esc
set tempo
stop
Author
Difficulty
About this tab version
The Sound's Hour of Need - this is a very simple guitar tab but some people have problems figuring it out because it's buried behind the synth on the chorus. Was this info helpful? Yes No
From the Album: Jeopardy (1980)

TUNING=E Standard (EADGBE)

GENERAL NOTES: Adrian Borland uses a flanger pedal on this song with a very slow sweep and high feedback.
I believe the original was recorded using his Gibson SG.

I wrote out the structure at the bottom, for the most part, the riffs on this song are very simple.


[Intro/verse]
  RIFF A                                             Lead-In to Bridge
e|------------------------------------------------||---------------------|
B|-----------------------------------------------.||---------------------|
G|-0----------0------------0-----------0----------||--0------------------|
D|---0----------0------------0-----------0--------||----0----------------|
A|-----9-----------9-----------9-----------9-----.||------9\-------------|
E|-------0-----------0-----------0-----------0----||---------------------|


[BRIDGE/GUITAR INTERLUDE]
   C5                         C5                      let ring...
e|----------------------------------------------------||
B|---------------------------------------------------.||
G|--------------------------0-------------------------||
D|-----0--0--------0-----0---------0--0-----0------0--||
A|--3--------3--3-----3-------3--3------3-3---(3)----.||
E|----------------------------------------------------||


[Chorus]
                               2X
e|--------8---------------8----||------|
B|----------------------------.||------|
G|--9-----------9--------------||------|
D|------9----------------------||------|
A|-------------------7--------.||------|
E|-----------------------------||---0--|


SONG STRUCTURE

INTRO/VERSE 1

RIFF A is played through 8 times, but the third time of this run changes to the Lead-In to Bridge
(Basically put, the low E is left off before going to the Bridge)

BRIDGE 1X

Verse 2 - first part only played through once

BRIDGE 1X

Chorus 2X

Verse 3 - same as verse 2

BRIDGE 1X

Chorus 2X

Rest (Bass guitar Part)

Play the first four notes of intro/verse riff one last time and let ring out


Original Recording on Youtube = https://www.youtube.com/watch?v=dIYWE2cA_OA


************************************

| \    Slide down
| (n)  Ghost note  

************************************

            
            
Suggest correction
Creating personal tab
Creating personal tab
You can edit any tab online and save it as your Personal.

You can edit, replace or remove any tab part or add personal notes – all changes will be seen only by you.

Personal tabs can be accessed anytime from any device, even offline.
Learn more »
Give kudos to tab author, rate the tab!
1 2 3 4 5
comments
print report bad tab
guest
You may want to rate the tab now too:
select rating
Wanna post a correction for this tab? Suggest correction