Oops, an error
Loading. Please wait.

Leave This City Tab

60 views 1 this week
no commentswrite comment
1 2 3 4 5
excellent!
x 1
add to favorites
launch autoscroll
font size
0
reset
how to read this tab
guitar tuner
Tab Pro tools
  • play this tab
  • loop segment
  • change instrument
  • show fretboard
  • metronome
Autoscroll
slow
fast
+/-
esc
set tempo
stop
Contributor
Difficulty
Tuning
intermediate
D# G# C# F# A# D#
LEAVE THIS CITY
The Sound Approach

TUNING: 1/2 STEP DOWN

s = slide
b = bend
x = mute string
p = pull-off
pm= palm-mute
~ = let ring/vibrato

Intro
[E - B - C#m - A]

e|--0--0-0-0-0-0-0-0-0--0--0-0-0-0-0-0-0-0---|
B|--0--5-5-5-5s7s9-7-5--0--5-5-5-9s7s5-7-5---|
G|--1-------------------4--------------------|
D|--2-------------------4--------------------|
A|--2-------------------2--------------------|
E|--0----------------------------------------|

e|--0-0-0-0-0-0-0---0---|
B|--5-5-5-5-5-5-5--12~--|
G|----------------------|
D|----------------------|
A|----------------------|
E|----------------------|


VERSE
[E - A]

e|---0--0---|
B|---0--0---|
G|---1--2---|
D|---2--2---|
A|---2--0---|
E|---0--0---|


PRECHORUS
e|----------------------------------------------------|
B|----------------------------------------------------|
G|--4-4-4-4-4-4--6-6-6-6-6-6--------------------------|
D|--4-4-4-4-4-4--6-6-6-6-6-6--7-7-7-7-7-7-7-7-7-7-7---|
A|--2-2-2-2-2-2--4-4-4-4-4-4--7-7-7-7-7-7-7-7-7-7-7---|
E|----------------------------5-5-5-5-5-5-5-5-5-5-5---|
  pm...................................................

CHORUS
[E - B - C#m - A]

e|--0--0-0-0-0-0-0-0-0--0--0-0-0-0-0-0-0-0--0-0-0-0-0-0--0---|
B|--0--5-5-5-5s7s9-7-5--0--5-5-5-9s7s5-7-5--5-5-5-5-5-5--0---|
G|--1-------------------4-------------------6------------6---|
D|--2-------------------4-------------------6------------7---|
A|--2-------------------2-------------------4------------7---|
E|--0----------------------------------------------------5---|

e|--0--0-0-0-0-0-0-0-0--0--0-0-0-0-0-0-0-0--0-0-0-0-0-0---|
B|--0--5-5-5-5s7s9-7-5--0--5-5-5-9s7s5-7-5--5-5-5-5-5-5---|
G|--1-------------------4-------------------6-------------|
D|--2-------------------4-------------------6-------------|
A|--2-------------------2-------------------4-------------|
E|--0-----------------------------------------------------|

e|------------------------------------0~---|
B|------------------------------------0~---|
G|--16-16--13-13--11-11--9-9--9s11-9--1~---|
D|---x--x---x--x--x-x----x-x--x-x--x--2~---|
A|--14-14--11-11--9--9---7-7--7s9--7--2~---|
E|------------------------------------0~---|


BRIDGE
[C#m - A - E - B]
                                        
e|--0--0--0--0--|------------------0-0--------------------------------|
B|--3--0--0--0--|------------------0-0--------------------------------|
G|--4--2--1--4--|------------6-6---2-2-----------------4-4-4-4-4-4-4--|
D|--6--2--2--4--|--x3,-then--6-6---2-2---2-2-2-2-2-2---4-4-4-4-4-4-4--|
A|--4--0--2--2--|------------4-4---0-0---2-2-2-2-2-2---2-2-2-2-2-2-2--|
E|--------0-----|------------------------0-0-0-0-0-0------------------|
                                       pm..............................

SOLO
e|-----------------------------------------|
B|---9----9-----------12---9--9------------|
G|--11b13----(x6)---11b13-13-13-----(x5)---|
D|----------------(hold-bend-to-13)--------|
A|-----------------------------------------|
E|-----------------------------------------|

e|----------9-----------------------------------------|
B|----9---9---12p9-----------------------9------------|
G|--11b13----------11p9-11p9----9~--9-11---11p9----9--|
D|---------------------------11-----------------11----|
A|----------------------------------------------------|
E|----------------------------------------------------|

e|-----------------------------------------------|
B|-----------------------------------------------|
G|--11b13b11p9----9------------------------------|
D|-------------11---11-9-------------------------|
A|-----------------------11-9-7s9s7-9------------|
E|-------------------------------------9s12s9-0--|

e|--12-14-12-14-12-12-12-12---------------19-----------------------------|
B|--12-12-12-12-12-14-12-14---------19b21----21b19-17----17-19-17--------|
G|----------------------------(x2)--------------------18-----------(x2)--|
D|-----------------------------------------------------------------------|
A|-----------------------------------------------------------------------|
E|-----------------------------------------------------------------------|

e|------------------------------------------------|
B|---9~-----------------12------------------------|
G|--11b13-13-13---(x4)--14b16-16-16---(x4)--------| (Finish with open E punch)
D|------------------------------------------------|
A|------------------------------------------------|
E|------------------------------------------12s0--|

www.thesoundapproach.ca

By.Mr.Hazard
comments
We did not receive enough feedback on this tab! Please rate:
print report bad tab
1 2 3 4 5
I want to post or [tab]
guest
You may want to rate the tab now too:
select rating
Please do not post tabs as comments. Select "correction" instead!