Oops, an error
Loading. Please wait.

If I Were Me Tab

version 1
version 1

Whole song

8,331 views 30 this week
1 commentread comment
1 2 3 4 5
excellent!
x 13
add to favorites
launch autoscroll
font size
0
reset
how to read this tab
guitar tuner
Tab Pro tools
  • play this tab
  • loop segment
  • change instrument
  • show fretboard
  • metronome
Autoscroll
slow
fast
+/-
esc
set tempo
stop
Contributor
Sound City Players - Once upon a Time... The End / If I were me

  === Key ===
  / - Slide up
  \ - Slide down
  h - hammer on
  p - pull off
  <12> - Harmonic
  ~ - Vibrato
  (7) - Pianissimo (Very softly)
  o - Repeat


Intro

e|----------------------------------|----------------------------------|
B|----------------------------------|----------------------------------|
G|--------<12>----------------------|--------<12>----------------------|
D|--------<12>----------------------|--------<12>----------------------|
A|---------------------------9------|---------------------------9------|
E|---0------------------3/7-----7---|---0------------------3/7-----7---|


e|----------------------------------|----------------------------------|
B|----------------------------------|--------<12>----------------------|
G|--------<12>----------------------|--------<12>----------------------|
D|--------<12>----------------------|----------------------------------|
A|---------------------------9------|----------------------------------|
E|---0------------------3/7-----7---|---0------------------------------|


== Main Verse ==

e|----------------------------------|----------------------------------|
B|o---------------------------------|---------------------------------o|
G|--------<12>----------------------|--------<12>----------------------|
D|--------<12>----------------------|--------<12>----------------------| Repeat
A|o--------------------------9------|---------------------------9-----o|
E|---0------------------3/7-----7---|---0------------------3/7-----7---|



e|----------------------------------|----------------------------------|
B|----------------------------------|---------0------------------------|
G|--------<12>----------------------|---------0------------------------|
D|--------<12>--------------9-------|---------------------5/12-12------|
A|---0-----------------3/7-----7----|---3------------------------------|
E|----------------------------------|----------------------------------|


e|----------------------------------|----------------------------------|
B|----------------------------------|----------------------------------|
G|--------<12>----------------------|--------<12>----------------------|
D|--------<12>----------------------|--------<12>----------------------|
A|---------------------------9------|---------------------2/5-5---7----|
E|---0------------------3/7----7----|---0------------------------------|


Repeat Main Verse

== Chorus ==

e|---------3------------------------|----------------------------------|
B|o--------0------------------------|---------0------------------------|
G|----------------------------------|---------0------------------------|
D|--------------------------5---7---|--------------------------0-------|
A|o--3-----------------3/7----------|---0-----------------0h2-----2----|
E|----------------------------------|----------------------------------|


e|---------0------------------------|---------3------------------------|
B|---------0------------------------|---------0-----------------------o|
G|----------------------------------|----------------------------------| Repeat
D|----------------------------------|--------------------------0-------| 
A|---------------------2/5--5---7---|---------------------0h2-----2---o|
E|---0------------------------------|---3------------------------------|


e|---------3------------------------|------------------0---------------|
B|---------0------------------------|---------1p0----------------------|
G|----------------------------------|---------2------------------------|
D|--------------------------5---7---|----------------------------------|
A|---3-----------------3/7----------|---0------------------------------|
E|----------------------------------|----------------------------------|


== First Bridge ==

e|----------------------------------|----------------------------------|
B|----------------------------------|----------------------------------|
G|--------<12>----------------------|--------<12>----------------------|
D|--------<12>----------------------|--------<12>----------------------|
A|---------------------------9------|---------------------------9------|
E|---0------------------3/7-----7---|---0------------------3/7-----7---|


e|----------------------------------|----------------------------------|
B|----------------------------------|--------<12>----------------------|
G|--------<12>----------------------|--------<12>----------------------|
D|--------<12>----------------------|----------------------------------|
A|----------------------0/9-9-------|----------------------------------|
E|---0--------------------------7---|---0------------------------------|


Main Verse x2

Chorus


Second Bridge (Solo plays at the same time)

e|----------------------------------|----------------------------------|
B|o---------------------------------|----------------------------------|
G|--------<12>----------------------|--------<12>----------------------|
D|--------<12>----------------------|--------<12>----------------------|
A|o--------------------------9------|---------------------------9------|
E|---0------------------3/7-----7---|---0------------------3/7-----7---|


e|----------------------------------|----------------------------------|
B|----------------------------------|---------------------------------o|
G|--------<12>----------------------|--------<12>----------------------| Repeat x3
D|--------<12>----------------------|--------<12>----------------------|
A|----------------------0/9-9-------|---------------------0/5-5---7---o|
E|---0-------------------------7----|---0------------------------------|


== Solo ==

e|----------------------------------|----------------------------------|
B|----------------------------------|----------------------------------|
G|----------------------------------|------------------------7~~-------|
D|---------------------------5~~----|----------7p5-----7/9-------------|
A|----------------------0/7---------|----------------------------------|
E|----------------------------------|----------------------------------|


e|----------------------------------|----------------------------------|
B|----------------------------------|--------------7----8~~------------|
G|---------9------------------------|---------9------------------------|
D|--------------7-------------------|----------------------------------|
A|----------------------------------|----------------------------------|
E|----------------------------------|----------------------------------|


e|------------0-----------0---------|---0---------------0--------------|
B|o-------0-----------0-----------0-|-----------0---5-------5---------o|
G|----------------------------------|----------------------------------|  Repeat
D|----------------------------------|---------------------------7------|
A|o---7----------(7)---------(7)----|------(7)------------------------o|
E|----------------------------------|----------------------------------|



Chorus (plays with an extra repeat)


== Outro ==

e|----------------------------------|----------------------------------|
B|----------------------------------|----------------------------------|
G|--------<12>----------------------|--------<12>----------------------|
D|--------<12>----------------------|--------<12>----------------------|
A|---------------------------9------|---------------------------9------|
E|---0------------------3/7-----7---|---0------------------3/7-----7---|


           > The harmonics decrescendo over the next couple of bars

e|----------------------------------|----------------------------------|
B|----------------------------------|----------------------------------|
G|--------<12>----------------------|--------<12>----------------------|
D|--------<12>----------------------|--------<12>----------------------|
A|---------------------------9------|---------------------2/5-5---7----|
E|---0------------------3/7-----7---|---0------------------------------|


e|----------------------------------|----------------------------------|
B|----------------------------------|----------------------------------|
G|--------<12>----------------------|----------------------------------|
D|--------<12>----------------------|----------------------------------|
A|---------------------------9------|---------------------------9------|
E|---0------------------3/7-----7---|---0------------------3/7-----7---|


           < Harmonics crescendo a bit

e|----------------------------------|----------------------------------|
B|----------------------------------|--------<12>----------------------|
G|--------<12>----------------------|--------<12>----------------------|
D|--------<12>----------------------|----------------------------------|
A|---------------------------9------|---------------------2/5-5---7----|
E|---0------------------3/7-----7---|---0------------------------------|


e|--------<12>----------------------|----------------------------------|
B|--------<12>----------------------|----------------------------------|
G|----------------------------------|----------------------------------|
D|----------------------------------|----------------------------------|
A|----------------------2/5-5--7----|---------------------2/5-5---7----|
E|---0------------------------------|---0------------------------------|


e|----------------------------------|----------------------------------|
B|----------------------------------|--------<12>----------------------|
G|----------------------------------|--------<12>----------------------|
D|----------------------------------|----------------------------------|
A|----------------------2/5-5--7----|---------------------2---5---7----|
E|---0------------------------------|---0------------------------------|


e|--------<12>----------------------|----------------------------------|
B|--------<12>----------------------|----------------------------------|
G|----------------------------------|----------------------------------|
D|----------------------------------|----------------------------------|
A|----------------------------------|----------------------------------|
E|---0------------------------------|----------------------------------|
comments
print report bad tab
1 comment total.
0 reply
TambergWill wrote on May 13 2013, 07:44 pm

Excelent tab!

I want to post or [tab]
guest
You may want to rate the tab now too:
select rating
Please do not post tabs as comments. Select "correction" instead!