Oops, an error
Loading. Please wait.

Street Freak Tab

80 views 1 this week
no commentswrite comment
1 2 3 4 5
please rate
add to favorites
launch autoscroll
font size
0
reset
how to read this tab
guitar tuner
Autoscroll
slow
fast
+/-
esc
set tempo
stop
Help us to improve Ultimate-Guitar.com Take our survey!
×
Difficulty
novice
"Street Freak"
The Sound Explosion

Tabbed by Phil Cowey
supermarketpunkrock@hotmail.co.uk


Great band great song, one of the best on the album :) hopefully its all right, might 
some minor changes but

i think its pretty good for messing around in your room along to the song :) any 
people see e-mail me

and i'll update it :)


Quite an easy song, ive got the general notes down here, so try to use this to get ur 
but i think you'll probably get the timing from reading these notes and listening to the 
just listen carefully

its easy :)

Intro (trebly guitar)
d)---------------------------------|
a)---------------------------------|
e)-0---2---2-2-0---0--2-2-2-2-2-5--|

at 0:05 Bass comes in with same notes

0:11 2nd Guitar comes in:
e)---------------------------------|
b)---------------------------------|
g)---------------------------------|
d)---------------------------------|
a)-2---4---4-4-2---2--4-4-4-4-4-7--|
e)-0---2---2-2-0---0--2-2-2-2-2-5--|

0:17 Drums come in, everyone carries on

0:22 Verse 1:

"Well he was born a street freak..."

e)--------------------------------------|
b)--------------------------------------|
g)--------------------------------------|
d)--------------------------------------|
a)-2---4---4-4-2---2--4-4-4-4-4----7----|
e)-0---2---2-2-0---0--2-2-2-2-2----5----|
   PM-----------------------------------|   Open


0:45
Part after Verse 1
Same as intro with all parts, open, no palm muting

0:51
Verse 2


"Will this man ever learn...."

e)---------x----|
b)---------x----|
g)---------x----|
d)---------x-7--|
a)---------x-7--|
e)---------x-5--|
           |
           |
           Little Harmonics before playing the chord


1:14
Chorus
e)--------------------------------------------------------------|
b)--------------------------------------------------------------|
g)--------------------------------------------------------------|
d)--------------------------------------------------------------|
a)--9-9-9-9--12-12-12--15-15-15--2--4--4-4-2---2--4-4-4-4-4--7--|
e)--7-7-7-7--10-10-10--13-13-13--0--2--2-2-0---0--2-2-2-2-2--5--|


1:25
Guitar 1
e)---------------------------------|
b)---------------------------------|
g)---------------------------------|
d)---------------------------------|
a)-2---4---4-4-2---2--4-4-4-4-4-7--|
e)-0---2---2-2-0---0--2-2-2-2-2-5--|

Lead Guitar Behind Rythmn
Tremelo Picking between 11 and 14 like so seems to work:
add a JEt kinda effect if u can :) :)

e)-----------------------------------|
b)---^-------^-----------------------|
g)-11b-----14b-----11b^-----14b^-----|
d)-----------------------------------|
a)-----------------------------------|
e)-----------------------------------|

whacking a slight bend in there also makes it sound similar.. not sure if its right but sounds ok under

everything else


1:37 After Snare hit:
(trebly guitar)
d)---------------------------------|
a)---------------------------------|
e)-0---2---2-2-0---0--2-2-2-2-2-5--|

u can make these chords like the rythmn, and whack a deeper bass effect on ur guitar to 
it sound really

meating.. its up to u.


1:48
Solo effort
hmmm im not 100% on this.. i generally just bend around on this strings (thing The 
and really give it some

some on the notes, generally its not a great solo, its just a cool little rock solo, so 
bend away around

these notes and see what happens :)
e)-----------------------------------------------------------------------------^-|
b)-4b(5)(5)(5)(5)(5)(5)(5)(5)--0-5b5b5b5b5b-6-5b5b5b5b5b-0-2b-x-2b-x-2b-x-2b--5b-|
g)-------------------------------------------------------------------------------|
d)-------------------------------------------------------------------------------|

Guitar over Solo
e)---------------------------------|
b)---------------------------------|
g)---------------------------------|
d)---------------------------------|
a)-2---4---4-4-2---2--4-4-4-4-4-7--|
e)-0---2---2-2-0---0--2-2-2-2-2-5--|

2:00
Bridge Part
Start with the verse, quite palm muting with the last chord, opened, then gradually 
in another guitar

playing the trebly riff, but with more bass on it this time.. gradually build up letting 
palm muting off

slowly, until...

"Spends all his time lookin' for a main line....."

e)--------------------------------------|
b)--------------------------------------|
g)--------------------------------------|
d)--------------------------------------|
a)-2---4---4-4-2---2--4-4-4-4-4----7----|
e)-0---2---2-2-0---0--2-2-2-2-2----5----|
   PM-----------------------------------|   Open

2:20
..the snare drums hit
then play the intro again with all the guitars and bass and drums
Guitar 1 and Bass
d)---------------------------------|
a)---------------------------------|
e)-0---2---2-2-0---0--2-2-2-2-2-5--|

2nd Guitar:
e)---------------------------------|
b)---------------------------------|
g)---------------------------------|
d)---------------------------------|
a)-2---4---4-4-2---2--4-4-4-4-4-7--|
e)-0---2---2-2-0---0--2-2-2-2-2-5--|

2:34
Bass Continues with
d)---------------------------------|
a)---------------------------------|
e)-0---2---2-2-0---0--2-2-2-2-2-5--|

and also i like to play another guitar playing the

d)---------------------------------|
a)-2---4---4-4-2---2--4-4-4-4-4-7--|
e)-0---2---2-2-0---0--2-2-2-2-2-5--|

riff, but with more fluency and less pause on the notes to fill in the outro.. nice and quite tho

continue with the correct pauses for drums and end on a muted harmonic note, always 
it nicely :)

not to hard :)


Lyrics:

Well he was born a street freak
And he will die one too.
With a drink in his hand and his friends in his sights
He's coming for you.
Street freak lies in your street
Street freak lies in your sheets
Street freak lies through his teeth
Street freak is a common thief.

Will this man ever learn
Does this man feel concern
Has this man ever heard
Street freak's not his only word.
So he was born a Street freak
and he will die one too
With a drink in his hand and his friends in his sights
He's coming for you.

Spends all his time lookin' for a main line (x8)
Suggest correction
Give kudos to tab author, rate the tab!
1 2 3 4 5
comments
print report bad tab
guest
You may want to rate the tab now too:
select rating
Wanna post a correction for this tab? Suggest correction