Oops, an error
Loading. Please wait.

Act Ii - All Is Ash Or The Light Shining Through It Tab

version 2
version 2

Whole song

Interactive

145 views 1 this week
no commentswrite comment
1 2 3 4 5
please rate
add to favorites
launch autoscroll
font size
0
reset
how to read this tab
guitar tuner
Tab Pro tools
  • play this tab
  • loop segment
  • change instrument
  • show fretboard
  • metronome
×
Best way to learn
"Act Ii - All Is Ash Or The Light Shining Through It"
Autoscroll
slow
fast
+/-
esc
set tempo
stop
Contributor
-------------------------------------------------------------------------------
                ACT II - ALL IS ASH OR THE LIGHT SHINING THROUGH IT
-------------------------------------------------------------------------------

Everything here SHOULD be 99% correct or at least very close. Let me know
if I screwed anything up though. This is mainly just one guitar part (left stereo).
If there's enough interest, I'll transcribe guitar two (right stereo). ENJOY!

Tuning: eBGDAE


Guitar 1
e|------8----------------8--------------------------|
B|------10---------------10-------------------------|
G|------9--7x10x9--------9--7x10x9------------7910--| x2
D|-7--7----------10-7--7----------10x12x9-7910------|
A|--------------------------------------------------|
E|--------------------------------------------------|

e|------8-------------8--------------------------|
B|------10------------10-------------------------|
G|------9--7x10x9-----9--7x10x9------------7910--|
D|-7--7----------7--7----------10x12x9-7910------|
A|-----------------------------------------------|
E|-----------------------------------------------|

e|------8-------------8--------------------------|
B|------10-6x10x8-----10-6x10x8--8x--------------|
G|------9--------9----9--------9x--7x9x7x5-4~----| 
D|-7--7-------------7----------------------------|
A|-----------------------------------------------|
E|-----------------------------------------------|

e|----------0-----5-----5--|
B|----6----------5-----5---|
G|---7-----7----5-----6----| x7
D|--7-----7----7-----7-----|
A|-5-----5-----------------|
E|-------------------------|

e|-------------------------------------------------------|
B|---------------------6-66-6--6666666-------------------|
G|-7-10-77-x--9-6-666--7x77x7--7777777----66x9--9999999--|
D|---------x7-----------x--x-----------7-x--x------------|
A|-5-8--55-x--7-4-444--5x55x5--5555555---x44x7--7777777--|
E|----------5--------------------------5-x---------------|

e|--------------------------------------------|
B|-8-10-8-6-8-6---6---------------------------|
G|--------------9---9-6--------66x9--9999999--|
D|----------------------7~--7-x---------------|
A|----------------------------x44x7--7777777--|
E|--------------------------5-x---------------|

Add your own accents or try copying the song's
e|---|    |----|    |---|    | --|
B|---|    |----|    |---|    |---|
G|---|x16 |----|x16 |---|x16 |-7-|x16
D|-7-|    |-7--|    |-5-|    |-5-|
A|-5-|    |-10-|    |-7-|    |-6-|
E|---|    |----|    |---|    |---|

e|---|    |---|    |---|    | --|
B|---|    |---|    |---|    |---|
G|-5-|x16 |-5-|x16 |-5-|x16 |-7-|x16
D|-7-|    |-7-|    |-5-|    |-5-|
A|-5-|    |-8-|    |-7-|    |-6-|
E|---|    |---|    |---|    |---|

e|----------------------------------------------------------|
B|------------------------6-66-6--6666666-------------------|
G|-10-7714141410-7-9-999--7x77x7--7777777----66x9--9999999--|
D|-------------------------x--x-----------7-x--x------------|
A|-8--551212128--5-7-777--5x55x5--5555555---x44x7--7777777--|
E|----------------------------------------5-x---------------|

e|--------------------------------------------|
B|-8-10-8-6-8-6---6---------------------------|
G|--------------9---9-6--------66x9--9999999--|
D|----------------------7~--7-x---------------|
A|----------------------------x44x7--7777777--|
E|--------------------------5-x---------------|

e|-10--10--101010---12-12-121212--|
B|-10--10--101010---12-12-121212--|
G|-10--10--101010---12-12-121212--| x2
D|--------------------------------|
D|--------------------------------|
D|--------------------------------|

e|-10--10--101010---12-12-121212----------------------------|
B|-10--10--101010---12-12-121212----------------------------|
G|-10--10--101010---12-12-121212-----66x99--12121212121212--|
D|--------------------------------7-x-----------------------|
A|----------------------------------x44x77--10101010101010--|
E|--------------------------------5-x-----------------------|

e|-------------------------|
B|-------------------------|
G|-10-7--14141412--7--999--| x3
D|-------------------------|
A|-8--5--12121210--5--777--|
E|-------------------------|

e|----------------------------------|
B|----------------------------------|
G|-10101012121214141416161616161616-|
D|----------------------------------|
A|-8-8-8-10101012121214141414141414-|
E|----------------------------------|

e|------------------------------------------------------------|
B|----------8---10---12---15-----------10------12----15/1715--|
G|-------7----9----9----12---11-12-9-7-----7-9----12----------|
D|---9-5---9-----------------------------9--------------------|
A|-7----------------------------------------------------------|
E|------------------------------------------------------------|

e|-----------------------------------------------------10-10/12----|
B|-17------------15-12---------------------------12------------13--|
G|----14-16-------------------9--------------7-9----12-------------|
D|----------17-14------12-9-7--10-9-5-------9----------------------|
A|------------------------------------5-5/7------------------------|
E|-----------------------------------------------------------------|

e|-------------|
B|-15----------|
G|----14-12----|
D|---------14--|
A|-------------|
E|-------------|


e|*************|----|
B|*************|----|
G|*************|----|
D|**no*clue****|----|
A|*************|-7~-|
E|*************|-5~-|

e|----------0-----5-----5--|
B|----6----------5-----5---|
G|---7-----7----5-----6----| x6
D|--7-----7----7-----7-----|
A|-5-----5-----------------|
E|-------------------------|

e|-------------------------------------------------------------------------|
B|-------------------------------------------------------------------------|
G|-77--1010109---6-666-1010-1010-10~-10101010101010---------66x9--9999999--|
D|---77--------7-----------------------------------------77x--x------------|
A|-55--8-8-8-7---4-444-8-8--8-8--8~--8-8-8-8-8-8-8---------x44x7--7777777--|
E|---55--------5-----------------------------------------55x---------------|

e|--------------------------------------------|
B|-8-10-8-6-8-6---6---------------------------|
G|--------------9---9-6--------66x9--9999999--|
D|----------------------7~--7-x---------------|
A|----------------------------x44x7--7777777--|
E|--------------------------5-x---------------|

e|-10--10--101010---12-12-121212--|
B|-10--10--101010---12-12-121212--|
G|-10--10--101010---12-12-121212--| x3
D|--------------------------------|
D|--------------------------------|
D|--------------------------------|

e|-------------------------9-1215---1215-19-22--|
B|--------------8-1114---11---------------------|
G|-7-6-9-12---9------------6-9-12---9-12-16-19--|
D|--------------5-8-11---8----------------------|
A|-5-4-7-10---7---------------------------------|
E|----------------------------------------------|

e|----------------------|
B|----------------------|
G|-10-7714141410-7-999--|
D|----------------------|
A|-8--551212128--5-777--|
E|----------------------|

*******************************************************
Guitar 2
e|------8---------------8--------------------------|
B|------10--------------10-------------------------|
G|------9---------------9--------------------------| 
D|-------------------------------------------------|
A|-0--0----5x8x7---0--0----5x8x7----------578------|
E|--------------8---------------8x10x7-578---------|

e|------8---------------7--------------------------|
B|------10--------------10-------------------------|
G|------9---------------9--------------------------| 
D|-------------------------------------------------|
A|-0--0----5x8x7---0--0----5x8x7----------578------|
E|--------------8---------------8x10x7-578---------|

e|------8------------8--------------------------|
B|------10-----------10-------------------------|
G|------9------------9--------------------------|
D|----------------------------------------------|
A|-0--0----5x8x70--0----5x8x7----------578------|
E|---------------------------8x10x7-578---------|

e|------8------------8--------------------------|
B|------10-----------10-------------------------|
G|------9------------9--------------------------| 
D|----------------------------------------------|
A|-0--0----5x8x70--0----5x8x7-------------------|
E|---------------------------8x10x7x8x7x4-0~----|

e|------------------------15--|
B|----15----17-----13----14---|
G|---14----14-----14----14----|
D|--15----15-----14----14-----|
A|-17----17-----12------------|
E|----------------------------|

e|------------------------15--------------------------15--|
B|----15----17-----13----14-------18----17-----13----14---|
G|---14----14-----14----14-------14----14-----14----14----| x3
D|--15----15-----14----14-------15----15-----14----14-----|
A|-17----17-----12-------------17----17-----12------------|
E|--------------------------------------------------------|


*******************************************************
Guitar 3 (Comes in at 0:55)
e|--12----12----12----12----12----12----12----12----12----12----12--------|
B|----15----15----------15----15----------15----15----------15----15--15--|
G|------------------------------------------------------------------------| x2
D|-0----12----12----12----12----12----12----12----12----12----12----12----|
A|------------------------------------------------------------------------|
E|------------------------------------------------------------------------|
   

************************************

| /   slide up
| \   slide down
| h   hammer-on
| p   pull-off
| ~   vibrato
| +   harmonic
| x   Mute note
| b   Bend
| pb  Pre-bend
| br  Bend release
| pbr Pre-bend release
| brb Bend release bend

************************************
comments
We did not receive enough feedback on this tab! Please rate:
print report bad tab
1 2 3 4 5
I want to post or [tab]
guest
You may want to rate the tab now too:
select rating
Please do not post tabs as comments. Select "correction" instead!