Oops, an error
Loading. Please wait.

4 Songs A Fight Bass Tab

1,863 views 1 this week
no commentswrite comment
1 2 3 4 5
please rate
add to favorites
launch autoscroll
font size
0
reset
guitar tuner
Autoscroll
slow
fast
+/-
esc
set tempo
stop
Help us to improve Ultimate-Guitar.com Take our survey!
×
Author
Difficulty
novice
-------------------------------------------------------------------------------
			     4 Songs & a Fight - The Sounds
-------------------------------------------------------------------------------

Tabbed By : Amberly F.

0:11

G|-----------------|
D|-222-555---------|
A|---------555-000-|
E|-----------------|

VERSE:
G|-3/4-3/4-3/4-7~--00---0222--|
D|--------------------4-------|
A|----------------------------|  X2
E|----------------------------|

G|-3/4-3/4-3/4-7~--00-22-----------------------------------|
D|-----------------------222-555---------222-555-44442222--|
A|-------------------------------555-000-------------------|
E|---------------------------------------------------------|

CHORUS:
G|-------------------------------------------------------------------|
D|-------------------------------------------------------------------|
A|-22225555----------5555555577777777-22225555----------55557777777--|
E|----------33333333---------------------------33333333--------------|

PRE-VERSE:
G|-3/4 -3/4-3/4-7~-00---0222--3/4-3/4-3/4-7~-/--|
D|-------------------4-------------------------|
A|---------------------------------------------|
E|---------------------------------------------|

VERSE 2:
G|-3/4-3/4-3/4-7~-00-22----------222--|
D|------------------------------------|
A|------------------------------------|
E|------------------------------------|

G|-3/4-3/4-3/4-7~-00-22-------------------------44442244--|
D|----------------------222-555---------222-555-----------|
A|------------------------------555-000-------------------|
E|--------------------------------------------------------|

CHORUS: X1

"THE BEGINNING OF THE END..."
G|--------------------------------------------------------------------|
D|--------------------------------------------------------------------|
A|-22222224444444455555555----------22222222444444445555555577777777--|
E|-------------------------55555555-----------------------------------|

PAUSE

1:51
G|-----------------------------------|
D|-----------------------------------|
A|-222222224444444455555555----------|  X3
E|-------------------------55555555--|


G|--------------------------|
D|--------------------------|
A|-222222224444444455555555-|
E|--------------------------|

CHORUS: X1

"THE BEGINNING OF THE END..."
G|-------------------------------------------------------------------|
D|-------------------------------------------------------------------|
A|-5555555---------55555555-0000-1111-222-555----------555-77777777--|
E|---------3333333----------------------------33333333---------------|

G|------------------|
D|------------------|
A|-----555----------|
E|-333-----55555555-|

"OOOH"
G|-------------------------------------------------------------------|
D|------------------5555555555555557777777---------7777777777777777--|
A|-2222222255555555------------------------7777777-------------------|  X2
E|-------------------------------------------------------------------|



| /  slide up
| \  slide down
| h  hammer-on
| p  pull-off
| ~  vibrato
| +  harmonic
| x  Mute note
===============================================================================| 
Suggest correction
What's this?
You can suggest a correction to this tab. Community and Mods will review your correction and vote to approve or reject it.
comments
We did not receive enough feedback on this tab! Please rate:
print report bad tab
1 2 3 4 5
guest
You may want to rate the tab now too:
select rating
Please do not post tabs as comments. Select "correction" instead!