Oops, an error
Loading. Please wait.

Beatbox Bass Tab

version 1
version 1

Whole song

Interactive

616 views 1 this week
no commentswrite comment
1 2 3 4 5
please rate
add to favorites
launch autoscroll
font size
0
reset
guitar tuner
Autoscroll
slow
fast
+/-
esc
set tempo
stop
Help us to improve Ultimate-Guitar.com Take our survey!
×
Author
Difficulty
----------------------------------------------------------------------------
                          The Sounds - Beatbox
----------------------------------------------------------------------------

Tabbed by Vanessa Fournier
email : rock_the_nation_666@hotmail.com

Intro (0:15)

-----------------|
-----------------|
-5---------------|
-----------------|

-----------------|-----------------|-----------------|-----------------|
-----------------|-----------------|-----------------|-----------------|
-----------------|-----------------|-5-5-5-5-5-5-5-5-|-5-5-5-5-5-5-5-5-| x2
-0-0-0-0-0-0-0-0-|-5-5-5-5-3-3-3-3-|-----------------|-----------------|

Verse (0:37)

-----------------|-----------------|-----------------|-----------------|
-----------------|-----------------|-----------------|-----------------|
-7-7-7-7-7-7-7-7-|-3-3-3-3-3-3-3-3-|-7-7-7-7-7-7-7-7-|-3-3-3-3-3-3-3-3-| x2
-----------------|-----------------|-----------------|-----------------|

-----------------|-----------------|
-----------------|-----------------|
-5-5-5-5-5-5-5-5-|-5-5-5-5-5-5-5-5-|
-----------------|-----------------|

Chorus (0:58)

-----------------|-----------------|-----------------|-----------------|
-----------------|-----------------|-----------------|-----------------|
-----------------|-----------------|-5-5-5-5-5-5-5-5-|-5-5-5-5-5-5-5-5-| x3
-0-0-0-0-0-0-0-0-|-5-5-5-5-3-3-3-3-|-----------------|-----------------|

Replay Verse (1:24)

Chorus x4 (1:48)

Solo Guitar (2:23)

Chorus x8 (2:53)

The End
Suggest correction
Give kudos to tab author, rate the tab!
1 2 3 4 5
comments
print report bad tab
guest
You may want to rate the tab now too:
select rating
Wanna post a correction for this tab? Suggest correction