Oops, an error
Loading. Please wait.

Diana Tab

763 views 1 this week
no commentswrite comment
1 2 3 4 5
please rate
add to favorites
launch autoscroll
font size
0
reset
how to read this tab
guitar tuner
Autoscroll
slow
fast
+/-
esc
set tempo
stop
Help us to improve Ultimate-Guitar.com Take our survey!
×
Author
-----------------------------------------------------------------------------
                              The Sounds - Diana
                          Something to die for (2011)
-----------------------------------------------------------------------------
                                                  Tabbed by: Vanessa Fournier
                                      Email : Rock_the_nation_666@hotmail.com

Intro
-----------------|-----------------|
-7-r-7-r-7-r-7-r-|-7-r-7-r-7-r-7-r-|
-7-r-7-r-7-r-7-r-|-7-r-7-r-7-r-7-r-|
-7-r-7-r-7-r-7-r-|-7-r-7-r-7-r-7-r-|
-----------------|-----------------|
-----------------|-----------------|

Verse (x12)
-----------------|------------------|
-7h8-r-8-r-7-r-7-|-7h8--8---8---r---|
-7h9-r-9-r-7-r-7-|-7h9--9---9---r---|
-7h9-r-9-r-7-r-7-|-7h9--9---9---r---|
-----------------|------------------|
-----------------|------------------|
 |_| |_| |_| |_|   |_|  |   |   |

Pre-Chorus (x2)
-----------------|-----------------|-----------------|---------------------|
-8-r-8-r-8-r-8-r-|-8-r-8-r-8-r-8-r-|-7-r-7-r-7-r-7-r-|-15-r-15-r-15-r-15-r-|
-9-r-9-r-9-r-9-r-|-9-r-9-r-9-r-9-r-|-7-r-7-r-7-r-7-r-|-14-r-14-r-14-r-14-r-|
-9-r-9-r-9-r-9-r-|-9-r-9-r-9-r-9-r-|-7-r-7-r-7-r-7-r-|-14-r-14-r-14-r-14-r-|
-7-r-7-r-7-r-7-r-|-7-r-7-r-7-r-7-r-|-5-r-5-r-5-r-5-r-|-14-r-14-r-14-r-14-r-|
-----------------|-----------------|-----------------|---------------------|

Chorus
-------------|-------------|-------------|-------------|
-------------|-------------|-------------|-------------|
-------------|-------------|-7--7--7--7--|-7--7--7--7--|
-5--5--5--5--|-5--5--5--5--|-7--7--7--7--|-7--7--7--7--|
-5--5--5--5--|-5--5--5--5--|-5--5--5--5--|-5--5--5--5--|
-3--3--3--3--|-3--3--3--3--|-------------|-------------|

Pre-chorus (x1)

Verse (x2)

Pre-chorus (x2)

Chorus (x1)

Pre-chorus (x1)

Bridge (x4)
------------------|------------------|------------------|-----------------|
------------------|------------------|------------------|-----------------|
-r----------------|-r----------------|-r----------------|-r---------------|
-r----------------|-r----------------|-r----------------|-r---------------|
-r-7---7-10-10-7--|-r-7---7-10-10-7--|-r-7---7-10-10-7--|-r---------------|
------------------|------------------|------------------|---7---7-7-7-10-7|
 |_| |_| |___| |    |_| |_| |___| |    |_| |_| |___| |    |_| |_| |_| |__|


-------------|-------------|-------------|-------------|
-------------|-------------|-------------|-------------|
-5--5--5--5--|-5--5--5--5--|-5--5--5--5--|-5--r--r--r--|
-5--5--5--5--|-5--5--5--5--|-5--5--5--5--|-5--r--r--r--|
-3--3--3--3--|-3--3--3--3--|-3--3--3--3--|-3--r--r--r--|
-------------|-------------|-------------|-------------|

Pre-chorus (x2)

Chorus 
-------------|-------------|-------------|-------------|
-------------|-------------|-------------|-------------|
-------------|-------------|-7--7--7--7--|-7--7--7--7--|
-5--5--5--5--|-5--5--5--5--|-7--7--7--7--|-7--7--7--7--|
-5--5--5--5--|-5--5--5--5--|-5--5--5--5--|-5--5--5--5--|
-3--3--3--3--|-3--3--3--3--|-------------|-------------|

-------------|-------------|-------------|-------------|
-------------|-------------|-------------|-------------|
-9--9--9--9--|-9--9--9--9--|-7--7--7--7--|-7--7--7--7--|
-9--9--9--9--|-9--9--9--9--|-7--7--7--7--|-7--7--7--7--|
-7--7--7--7--|-7--7--7--7--|-5--5--5--5--|-5--5--5--5--|
-------------|-------------|-------------|-------------|

Pre-chorus (x2)

Chorus 
-------------|-------------|-------------|-------------|
-------------|-------------|-------------|-------------|
-------------|-------------|-7--7--7--7--|-7--7--7--7--|
-5--5--5--5--|-5--5--5--5--|-7--7--7--7--|-7--7--7--7--|
-5--5--5--5--|-5--5--5--5--|-5--5--5--5--|-5--5--5--5--|
-3--3--3--3--|-3--3--3--3--|-------------|-------------|

-------------|-------------|-------------|-------------|
-------------|-------------|-------------|-------------|
-9--9--9--9--|-9--9--9--9--|-7--7--7--7--|-7--r--r--r--|
-9--9--9--9--|-9--9--9--9--|-7--7--7--7--|-7--r--r--r--|
-7--7--7--7--|-7--7--7--7--|-5--5--5--5--|-5--r--r--r--|
-------------|-------------|-------------|-------------|


                                                               h = Hammer on
                                                                    r = Rest

Suggest correction
What's this?
You can suggest a correction to this tab. Community and Mods will review your correction and vote to approve or reject it.
comments
We did not receive enough feedback on this tab! Please rate:
print report bad tab
1 2 3 4 5
guest
You may want to rate the tab now too:
select rating
Please do not post tabs as comments. Select "correction" instead!