Oops, an error
Loading. Please wait.

Ego Tab

version 1
version 1

Whole song

3,095 views 6 this week
no commentswrite comment
1 2 3 4 5
1 last vote to show rating
add to favorites
launch autoscroll
font size
0
reset
how to read this tab
guitar tuner
Autoscroll
slow
fast
+/-
esc
set tempo
stop
Help us to improve Ultimate-Guitar.com Take our survey!
×
Difficulty
intermediate
this is pretty much everything!

e-8----8--8--x-x-x--6--6-6-6--8--6--4--4-4---6--6-6-6--8---6-----|
b-9----9--9--x-x-x--7--7-7-7--9--7--5--5-5---7--7-7-7--9---7-----|
g-10---10-10-x-x-x--8--8-8-8--10-8--6--6-6---8--8-8-8--10--8-----|
d-10---10-10-x-x-x--8--8-8-8--10-8--6--6-6---8--8-8-8--10--8-----|
a-8----8--8--x-x-x--6--6-6-6--8--6--4--4-4---6--6-6-6--8---6-----|
E----------------------------------------------------------------|

on this part:
"with empty words our worlds collide..."
play this:

-6------------8------------4-------------|
-7------------9------------5-------------|
-8------------10-----------6-------------|
-8------------10-----------6-------------|
-6------------8------------4-------------|
-----------------------------------------|

thats pretty much it!
Suggest correction
Give kudos to tab author, rate the tab!
1 2 3 4 5
comments
print report bad tab
guest
You may want to rate the tab now too:
select rating
Wanna post a correction for this tab? Suggest correction