Oops, an error
Loading. Please wait.

Ego Tab

version 2
version 2

Whole song

1,486 views 1 this week
no commentswrite comment
1 2 3 4 5
please rate
add to favorites
launch autoscroll
font size
0
reset
how to read this tab
guitar tuner
Autoscroll
slow
fast
+/-
esc
set tempo
stop
Help us to improve Ultimate-Guitar.com Take our survey!
×
----------------------------------------------------------------------------
                            The Sounds - Ego
----------------------------------------------------------------------------
Tabbed by Vanessa Fournier
email : rock_the_nation_666@hotmail.com

0:12 Verse
---------------|-----------------|---------------|-----------------|
---5---5-5--\--|-7---7---7-7-9-7-|---5---5-5--\--|-7---7---7-7-9-7-|
-r-6-r-6-6--\--|-8-r-8-r-8-8-8-8-|-r-6-r-6-6--\--|-8-r-8-r-8-8-8-8-|
-r-7-r-7-7--\--|-9-r-9-r-9-9-9-9-|-r-7-r-7-7--\--|-9-r-9-r-9-9-9-9-|
---------------|-----------------|---------------|-----------------|
---------------|-----------------|---------------|-----------------|

---------------|-----------------|---------------|-----------------|
---5---5-5--\--|-7---7---7-7-9-7-|---5---5-5--\--|-7---7---7-7-9-7-|
-r-6-r-6-6--\--|-8-r-8-r-8-8-8-8-|-r-6-r-6-6--\--|-8-r-8-r-8-8-8-8-|
-r-7-r-7-7--\--|-9-r-9-r-9-9-9-9-|-r-7-r-7-7--\--|-9-r-9-r-9-9-9-9-|
---------------|-----------------|---------------|-----------------|
---------------|-----------------|---------------|-----------------|

---------------|-----------------|
---5---5-5--\--|-7---7---7-7-9-7-|
-r-6-r-6-6--\--|-8-r-8-r-8-8-8-8-|
-r-7-r-7-7--\--|-9-r-9-r-9-9-9-9-|
---------------|-----------------|
---------------|-----------------|
 1 & 2 & 3  4*
 *Slide down

0:28 Chorus
----------------|------------------------|-----------------|---------------|
----------------|------------------------|---5-5---5-5---5-|5---5---4-4-4-5|
9-9-9-9-9-9-9-9-|11-11-11-11-11-11-11-11-|-r-6-6-r-6-6-r-6-|6-r-6-r-4-4-4-6|
9-9-9-9-9-9-9-9-|11-11-11-11-11-11-11-11-|-r-----r-----r---|-r----r--------|
7-7-7-7-7-7-7-7-|9--9--9--9--9--9--9--9--|-----------------|---------------|
----------------|------------------------|-----------------|---------------|

----------------|------------------------|-----------------|---------------|
----------------|------------------------|---5-5---5-5---5-|5---5---4-4-4-5|
9-9-9-9-9-9-9-9-|11-11-11-11-11-11-11-11-|-r-6-6-r-6-6-r-6-|6-r-6-r-4-4-4-6|
9-9-9-9-9-9-9-9-|11-11-11-11-11-11-11-11-|-r-----r-----r---|-r----r--------|
7-7-7-7-7-7-7-7-|9--9--9--9--9--9--9--9--|-----------------|---------------|
----------------|------------------------|-----------------|---------------|

----------------|------------------------|-----------------|
----------------|------------------------|-----------------|
9-9-9-9-9-9-9-9-|11-11-11-11-11-11-11-11-|-9-9-9-9-9-9-9-9-|
9-9-9-9-9-9-9-9-|11-11-11-11-11-11-11-11-|-9-9-9-9-9-9-9-9-|
7-7-7-7-7-7-7-7-|9--9--9--9--9--9--9--9--|-7-7-7-7-7-7-7-7-|
----------------|------------------------|-----------------|

-------------------------|
-------------------------|
-11-11-11-11-11-11-11-11-|
-11-11-11-11-11-11-11-11-|
-9--9--9--9--9--9--9--9--|
-------------------------|

Replay Verse x2

Replay Chorus x4

1:45 Interlude (really not sure of that!)
---------------|-----------------|---------------|-----------------|
---2---2-2--\--|-4---4---4-4-5-4-|---2---2-2--\--|-4---4---4-4-5-4-|
-r-2-r-2-2--\--|-4-r-4-r-4-4-6-4-|-r-2-r-2-2--\--|-4-r-4-r-4-4-6-4-|
-r---r------\--|---r---r---------|-r---r------\--|---r---r---------|
---------------|-----------------|---------------|-----------------|
---------------|-----------------|---------------|-----------------|

---------------|-----------------|---------------|-----------------|
---2---2-2--\--|-4---4---4-4-5-4-|---2---2-2--\--|-4---4---4-4-5-4-|
-r-2-r-2-2--\--|-4-r-4-r-4-4-6-4-|-r-2-r-2-2--\--|-4-r-4-r-4-4-6-4-|
-r---r------\--|---r---r---------|-r---r------\--|---r---r---------|
---------------|-----------------|---------------|-----------------|
---------------|-----------------|---------------|-----------------|

Replay Chorus

Suggest correction
Give kudos to tab author, rate the tab!
1 2 3 4 5
comments
print report bad tab
guest
You may want to rate the tab now too:
select rating
Please do not post tabs as comments. Select "correction" instead!