Oops, an error
Loading. Please wait.

Hit Me Bass Tab

version 1
version 1

Whole song

Interactive

1,350 views 1 this week
no commentswrite comment
1 2 3 4 5
3 more votes to show rating
add to favorites
launch autoscroll
font size
0
reset
guitar tuner
Autoscroll
slow
fast
+/-
esc
set tempo
stop
Help us to improve Ultimate-Guitar.com Take our survey!
×
Author
Difficulty
novice
Super fun, super easy. Enjoy!

-------------------------------------------------------------------------------
			     "Hit Me"- The Sounds
-------------------------------------------------------------------------------

Tabbed By : Amberly F

Intro:
G|-------------------------------------------------------------------------|
D|-------------------------------------------------------------------------|
A|-/2--2--22222222222222---------------------------------------------------|
E|-------------------------------------------------------------------------|

Verse:
G|-------------------------------------------------------------------------|
D|-------------------------------------------------------------------------|
A|-22222222-----------22222222-----------22222222-----------22222222-------|
E|----------3333-5555----------3333-5555----------3333-5555----------3333--|

Chours:
G|-------------------------------------------------------------------------|
D|-------------------------------------------------------------------------|
A|-22222222------------------------5~--------------------------------------|  x2
E|----------55555555-33333333-2222---5~------------------------------------|

Before second verse:
G|-------------------------------------------------------------------------|
D|-------------------------------------------------------------------------|
A|-22222222222222----------------------------------------------------------| Pause
E|-------------------------------------------------------------------------|

Verse:
G|-------------------------------------------------------------------------|
D|-------------------------------------------------------------------------|
A|-22222222-----------22222222-----------22222222-----------22222222-------|
E|----------3333-5555----------3333-5555----------3333-5555----------3333--|

Chours:
G|-------------------------------------------------------------------------|
D|-------------------------------------------------------------------------|
A|-22222222------------------------5~--------------------------------------| X2
E|----------55555555-33333333-2222----5~-----------------------------------|

With synthesizer
G|-------------------------------------------------------------------------|
D|-------------------------------------------------------------------------|
A|-------------------------------------------------------------------------|
E|-0000-2222-7-9-10-9-7-9-10-9---0000-2222-77777777------------------------|

Chours:
G|-------------------------------------------------------------------------|
D|-------------------------------------------------------------------------|
A|-22222222------------------------5~--------------------------------------| X2
E|----------55555555-33333333-2222----5~-----------------------------------|

Outro:
G|-------------------------------------------------------------------------|
D|-------------------------------------------------------------------------|
A|-2222-2222-2222-2222-2222-2222-2222-2222-2-------------------------------|
E|-------------------------------------------------------------------------|


| /  slide up
| \  slide down
| h  hammer-on
| p  pull-off
| ~  vibrato
| +  harmonic
| x  Mute note
===============================================================================
Suggest correction
Give kudos to tab author, rate the tab!
1 2 3 4 5
comments
print report bad tab
guest
You may want to rate the tab now too:
select rating
Wanna post a correction for this tab? Suggest correction