Oops, an error
Loading. Please wait.

Hurt You Bass Tab

945 views 1 this week
no commentswrite comment
1 2 3 4 5
please rate
add to favorites
launch autoscroll
font size
0
reset
guitar tuner
Autoscroll
slow
fast
+/-
esc
set tempo
stop
Help us to improve Ultimate-Guitar.com Take our survey!
×
----------------------------------------------------------------------------
                          The Sounds - Hurt You
----------------------------------------------------------------------------

Tabbed by Vanessa Fournier
email : rock_the_nation_666@hotmail.com

Verse :

Wait 4 measures

-----------------|-----------------|
-----------------|-----------------|
-r-0-r-0-2-2-2-2-|---------5-5-5-5-| x8
-----------------|-r-3-r-3---------|

-----------------|-----------------|
-----------------|-----------------|
-----------------|-r-5-5-5---------|
-r-2-r-2-3-3-3-3-|---------5-5-5-5-|

Chorus :

-----------------|-----------------|
-----------------|-----------------|
-----------------|-5-5-5-5---------| x4
-3-3-3-3-3-3-3-3-|---------5-5-5-5-|

Repley Verse x6

Replay Chorus

Interlude :
                                                              
-----------------|-----------------|-----------------|-------7-11-9----|
-----------------|-----------------|-----------------|----/9---------9-|
-2-2-2-2-2-2-2-2-|-5-5-5-5-5-5-5-5-|-----------------|-----------------|x2
-----------------|-----------------|-5-5-5-5-5-5-5-5-|-5-5-------------|

Replay verse x10

Replay interlude

Suggest correction
Give kudos to tab author, rate the tab!
1 2 3 4 5
comments
print report bad tab
guest
You may want to rate the tab now too:
select rating
Wanna post a correction for this tab? Suggest correction