Oops, an error
Loading. Please wait.

Living In America Bass Tab

version 1
version 1

Whole song

Interactive

9,122 views 6 this week
1 commentread comment
1 2 3 4 5
x 3
add to favorites
launch autoscroll
font size
0
reset
guitar tuner
Autoscroll
slow
fast
+/-
esc
set tempo
stop
Help us to improve Ultimate-Guitar.com Take our survey!
×
Author
-------------------------------------------------------------------------------
			     Living In America - The Sounds
-------------------------------------------------------------------------------

Tabbed By : Amberly F.

INTRO:
G|--------------------------------------------------------------------------|
D|--------------------------------------------------------------------------|
A|-------------------22222222222-444-66--------------------2222222222222222-|
E|-44444444-00000000---------------------44444444-00000000------------------|

G|-------------------------------------------------|
D|-------------------------------------------------|
A|-------------------22222222222-444-66------------|
E|-44444444-00000000---------------------44444444--|

VERSE:
G|--------------------------------------------------------------------------|
D|--------------------------------------------------------------------------|
A|----------6666-7777----------2222-646----------6666-7777----2-----2-------|   X2
E|-44444444-----------44444444----------44444444------------22-2-022-2-2222-|

CHORUS:
G|-----------------------------------------------------------------------------|
D|-----------------------------------------------------------------------------|
A|-------------------22222222222-444-66--------------------22222222222-111-22--|
E|-44444444-00000000---------------------44444444-00000000---------------------|

G|-----------------------------------------------------------------------------|
D|-----------------------------------------------------------------------------|
A|-------------------22222222222-444-66--------------------22222222222-444-66--|
E|-44444444-00000000---------------------44444444-00000000---------------------|

VERSE: X2

CHORUS

2:23 ("We're not living in America when Maja comes in)
G|---------------------------------------|
D|---------------------------------------|
A|--------------------22222222-44444444--|
E|-44444444-66666666---------------------|

G|----------------------------------------------------|
D|----------------------------------------------------|
A|-------------------22222222-4444444444444444444444--|
E|-44444444-66666666----------------------------------|

CHORUS

OUTRO:
G|--------------------------------------|
D|--------------------------------------|
A|-------------------22222222-44444444--|  X2
E|-44444444-66666666--------------------|

END ON:
G|-----|
D|-----|
A|-----|
E|-4~--|


| /  slide up
| \  slide down
| h  hammer-on
| p  pull-off
| ~  vibrato
| +  harmonic
| x  Mute note
===============================================================================
Suggest correction
Give kudos to tab author, rate the tab!
1 2 3 4 5
comments
print report bad tab
1 comment total.
0 reply
HIPHOPNOT 73 Sep 03, 2008 03:43 PM

Thanks dude!! i have been waiting on this tab:D

guest
You may want to rate the tab now too:
select rating
Wanna post a correction for this tab? Suggest correction