Oops, an error
Loading. Please wait.

Mine For Life Bass Tab

1,177 views 1 this week
no commentswrite comment
1 2 3 4 5
please rate
add to favorites
launch autoscroll
font size
0
reset
guitar tuner
Tab Pro tools
  • play this tab
  • loop segment
  • change instrument
  • show fretboard
  • metronome
×
Best way to learn
"Mine For Life"
Autoscroll
slow
fast
+/-
esc
set tempo
stop
Contributor
SONG:   Mine for Life
ARTIST: The Sounds
ALBUM:  Living in America
YEAR:   2002
TRACK:  3
TUNING: GDAE (standard)


The strumming here (>) is pretty fast, except where indicated. The pace is
clearly audible from the very first notes. It's hard to tell in some places
if he always keeps that same rhythm, but it sounds good that way, so that's
how I would play it.


(0:02)
G|--------------------------|
D|--------------------------|
A|------------4>------------|
E|--------------------------|


(0:10)
G|------------------------------------------------------|
D|-------------2---------2---------2---------2---2------|
A|----4>----2h4-4>----2h4-4>----2h4-4>----2h4-444-4>----|    ×2
E|------------------------------------------------------|
  Man, I'm in trouble, 'cause I can't see clear
  My head is pounding harder and you are not...


(0:25)
G|---------------------------------------------------|
D|----4>--------2h4>-2h4>-------2---------2---2------|
A|---------------------------2h4-4>----2h4-444-4>----|
E|---------------------------------------------------|
  ...here
  Are never here


(0:33)
G|------------------------------------------------------|
D|-------------2---------2---------2---------2---2------|
A|----4>----2h4-4>----2h4-4>----2h4-4>----2h4-444-4>----|
E|------------------------------------------------------|
  But I had it once, but not anymore
  Well, now I am tired and now I am...


(0:40)
G|---------------------------------------------------|
D|----4>--------2h4>-2h4>-------2---------2---2------|
A|---------------------------2h4-4>----2h4-444-4>----|
E|---------------------------------------------------|
  ...bored
  Well, I'm so bored


(0:48) Strumming is not as fast this time
G|---------------------------------------------------------------|
D|---------------------------------------------------------------|
A|----0>----------0>----7>----0>----------0>----2----2-3----3----|
E|----------2>----------------------2>---------------------------|
  But I could never leave you
  Even though I've tried
  No, I could never leave you
  'Cause you are mine for life


(1:03)
G|-------------------------------------------------------|
D|----------------2>----------2>-------------11-22-11----|
A|----4>----2>----------0>----------2>----44-------------|    ×2
E|-------------------------------------------------------|
  I've been lost, I've been found, I've been fooling around
  I've been hold, I've been told, I've been changing my mind
  I've been up, I've been down, come on in, take your time
  I've been low, I've been high, I'm in love with this lie


(1:19)
G|----------------------------|
D|----------------2>----------|
A|----4>----2>----------0>----|    ×4
E|----------------------------|
  Oooh... Well, do you feel the same?
  Oooh... It wears me out again


(1:34)
G|------------------------------------------------------|
D|-------------2---------2---------2---------2---2------|
A|----4>----2h4-4>----2h4-4>----2h4-4>----2h4-444-4>----|    ×2
E|------------------------------------------------------|
  If this is called living, well, don't count me in
  Sure, I feel alive, but it doesn't mean...


(1:42)
G|---------------------------------------------------|
D|----4>--------2h4>-2h4>-------2---------2---2------|
A|---------------------------2h4-4>----2h4-444-4>----|
E|---------------------------------------------------|
  ...a thing
  No, nothing


(1:50)
G|---------------------------------------------------------------|
D|---------------------------------------------------------------|
A|----0>----------0>----7>----0>----------0>----2----2-3----3----|
E|----------2>----------------------2>---------------------------|
  But I could never leave you
  Even though I've tried
  No, I could never leave you
  'Cause you are mine for life


(2:05)
G|-------------------------------------------------------|
D|----------------2>----------2>-------------11-22-11----|
A|----4>----2>----------0>----------2>----44-------------|    ×2
E|-------------------------------------------------------|
  I've been lost, I've been found, I've been fooling aroun
  I've been hold, I've been told, I've been changing my mind
  I've been up, I've been down, come on in, take your time
  I've been low, I've been high, I'm in love with this lie


(2:20)
G|----------------------------|
D|----------------2>----------|
A|----4>----2>----------0>----|    ×8
E|----------------------------|
  Oooh... Well, do you feel the same?
  Oooh... It wears me out again
  Oooh... Well, do you feel the same?
  Oooh... It wears me out again
  Oooh... Well, do you feel the same?
  Oooh... It wears me out again


  I've been lost, I've been found, I've been fooling around
  I've been up, I've been down, come on in, take your time
  I've been low, I've been high, I'm in...


(3:04)
G|-------------------|
D|-------11-22-11----|
A|----44-------------|
E|-------------------|
  ...love with this lie


(3:06)
G|--------------------------|
D|--------------------------|
A|------------4>------------|
E|--------------------------|
  So good!
  It's so good!
  It's so good!
  Ha!


(3:19)
G|----------------------|
D|----11-22-11----------|
A|-------------44-22----|
E|----------------------|
  Ooh!


(3:22)
G|-------------------------------------------------------|
D|----------------2>----------2>-------------11-22-11----|
A|----4>----2>----------0>----------2>----44-------------|    ×3
E|-------------------------------------------------------|
  And bring me up just to kick me down
  And fix me up, just to kick me down
  Kick it, kick it, kick it, ah!
  And bring me down, yeah!


(3:45) Modulation
G|-------------------------------------------------------|
D|-------------------------------------------------------|
A|----------------4>----------4>-------------33-44-33----|    ×2
E|----6>----4>----------2>----------4>----66-------------|


(4:00)
G|-------------------------------------------------------|
D|----------------2>----------2>-------------11-22-11----|
A|----4>----2>----------0>----------2>----44-------------|    ×2
E|-------------------------------------------------------|


(4:16) Modulation
G|-------------------------------------------------------|
D|----------------4>----------4>-------------33-44-33----|
A|----6>----4>----------2>----------4>----66-------------|    ×2
E|-------------------------------------------------------|


(4:31)
G|----------------------------------------------|
D|--------------------------------33-44-33------|
A|----6~~~~~~~~~~~~------------66----------6----|
E|----------------------------------------------|
comments
We did not receive enough feedback on this tab! Please rate:
print report bad tab
1 2 3 4 5
I want to post or [tab]
guest
You may want to rate the tab now too:
select rating
Please do not post tabs as comments. Select "correction" instead!