Oops, an error
Loading. Please wait.

My Lover Bass Tab

538 views 1 this week
no commentswrite comment
1 2 3 4 5
please rate
add to favorites
launch autoscroll
font size
0
reset
guitar tuner
Tab Pro tools
  • play this tab
  • loop segment
  • change instrument
  • show fretboard
  • metronome
×
Best way to learn
"My Lover"
Autoscroll
slow
fast
+/-
esc
set tempo
stop
Contributor
---------------------------------------------------------------------------
                           The Sounds - My Lover
---------------------------------------------------------------------------

Tabbed by Vanessa Fournier
email : rock_the_nation_666@hotmail.com

Intro :

--------                     --------            --------|
--------                     -6------            -4------|
-7------ Let ring 4 measures -------- Let ring 2 --------| Let ring 2
--------                     --------            --------|

----------------|-----------------|-------------------|-----------------|
----------------|-----------------|-------------------|-----------------|
----------------|-----------------|-------------------|-----------------|
4-4-4-4-4-4-4-4-|-4-4-4-4-4-4-4-4-|-4-4-4-4-4-4-4-4-4-|-4-4-4-4-4-4-4-4-|

----------------|-----------------|-------------------|-----------------|
4-4-4-4-4-4-4-4-|-4-4-4-4-4-4-4-4-|-4-4-4-4-4-4-4-4-4-|-4-4-4-4-4-4-4-4-|
----------------|-----------------|-------------------|-----------------|
----------------|-----------------|-------------------|-----------------|

Verse :

----------------|-----------------|-------------------|-----------------|
----------------|-----------------|-------------------|-----------------|
----------------|-----------------|-------------------|-----------------|
4-4-4-4-4-4-4-4-|-4-4-4-4-4-4-4-4-|-4-4-4-4-4-4-4-4-4-|-4-4-4-4-4-4-4-4-|

----------------|-----------------|-------------------|-----------------|
4-4-4-4-4-4-4-4-|-4-4-4-4-4-4-4-4-|-4-4-4-4-4-4-4-4-4-|-4-4-4-4-4-4-4-4-|
----------------|-----------------|-------------------|-----------------|
----------------|-----------------|-------------------|-----------------|

-----------------|-----------------|-----------------|-----------------|
-6-r-6-r-6-r-6---|-6-r-6-r-6-r-6---|-6-r-6-r-6-r-6---|-6-r-6-r-6-r-6---|
-----------------|-----------------|-----------------|-----------------|
---------------4-|---------------4-|---------------4-|---------------4-|

----------------|-----------------|-------------------|-----------------|
4-4-4-4-4-4-4-4-|-4-4-4-4-4-4-4-4-|-4-4-4-4-4-4-4-4-4-|-----------------|
----------------|-----------------|-------------------|---------2-2-4-4-|
----------------|-----------------|-------------------|-2-2-4-4---------|

Chorus :

-----------------|-----------------|-----------------|-----------------|
-2-2-2-2-2-2-2-2-|-2-2-2-2-2-2-2-2-|-2-2-2-2-2-2-2-2-|-2-2-2-2-2-2-2-2-|
-----------------|-----------------|-----------------|-----------------|
-----------------|-----------------|-----------------|-----------------|

-----------------|-----------------|-----------------|-----------------|
-6-6-6-6-6-6-6-6-|-6-6-6-6-6-6-6-6-|-4-4-4-4-4-4-4-4-|-4-4-4-4-4-4-4-4-|
-----------------|-----------------|-----------------|-----------------|
-----------------|-----------------|-----------------|-----------------|

Replay Verse

Replay Chorus

-----------------|-----------------|-----------------|-----------------|
-----------------|-----------------|-----------------|-----------------|
-2-r-2-r-2-r-2-r-|-2-r-2-r-2-r-2-r-|-2-r-2-r-2-r-2-r-|-2-r-2-r-2-r-2-r-|
-----------------|-----------------|-----------------|-----------------|

-----------------|-----------------|-----------------|-----------------|
-6-6-6-6-6-6-6-6-|-6-6-6-6-6-6-6-6-|-4-4-4-4-4-4-4-4-|-4-4-4-4-4-4-4-4-|
-----------------|-----------------|-----------------|-----------------|
-----------------|-----------------|-----------------|-----------------|

--------                     ----------|
--------                     ----------|
-------- Let ring 2 measures ----------|
-4------                     -4--------|

--------                     ----------|
--------                     ----------|
-------- Let ring 2 measures ----------|
-4------                     -4--------|

--------  ----------  ----------  ---------  ---------|
--------  ----------  ----------  ---------  ---------|
-7------  -7--------  -7\2------  -2-------  -2---6---|
--------  ----------  ----------  ---------  ---------|

I'm not sure for that part..

-----------------|-----------------|-----------------|-----------------|
--------------2h4|--------------2h4|---------------4-|-----------------|
-----------------|-----------------|-2-r-2-r-2-r-2---|-2-r-2-r-2-------| x4
-4-r-4-r-4-r-4---|-4-r-4-r-4-r-4---|-----------------|------------2h4-2|

-----------------|-----------------|-----------------|-----------------|
-----------------|-----------------|-----------------|-----------------|
-2-r-2-r-2-r-2-r-|-2-r-2-r-2-r-2-r-|-2-r-2-r-2-r-2-r-|-2-r-2-r-2-r-2-r-|
-----------------|-----------------|-----------------|-----------------|

Chorus x3

The End !

| r Rest
| h Hammer On
comments
We did not receive enough feedback on this tab! Please rate:
print report bad tab
1 2 3 4 5
I want to post or [tab]
guest
You may want to rate the tab now too:
select rating
Please do not post tabs as comments. Select "correction" instead!