Oops, an error
Loading. Please wait.

No One Sleeps When Im Awake Bass Tab

version 1
version 1

Whole song

Interactive

1,969 views 1 this week
1 commentread comment
1 2 3 4 5
please rate
add to favorites
launch autoscroll
font size
0
reset
guitar tuner
Autoscroll
slow
fast
+/-
esc
set tempo
stop
Help us to improve Ultimate-Guitar.com Take our survey!
×
Author
----------------------------------------------------------------------------
                The Sounds - No one sleeps when i'm awake
----------------------------------------------------------------------------

Tabbed by Vanessa Fournier
email : rock_the_nation_666@hotmail.com

Intro 0:22

-----------------|-----------------|-----------------|-----------------|
-6-6-6-6-6-6-6-6-|-4-4-4-4-4-4-4-4-|-----------------|-----------------|
-----------------|-----------------|-4-4-4-4-4-4-4-4-|-4-4-4-4-4-4-4-4-|
-----------------|-----------------|-----------------|-----------------|

-----------------|-----------------|-----------------|-----------------|
-----------------|-4-4-4-4-4-4-4-4-|-----------------|-----------------|
-2-2-2-2-2-2-2-2-|-----------------|-4-4-4-4-4-4-4-4-|-4-4-4-4-4-4-4-4-|
-----------------|-----------------|-----------------|-----------------|

Verse 0:37

-----8-------8---|-----8-------8---|-----------------|-----------------|
-r-------r-------|-r-------r-------|-r---4---r---4---|-r---4---r---4---|
-r-6---6-r-6---6-|-r-6---6-r-6---6-|-r-------r-------|-r-------r-------|
-----------------|-----------------|---2---2---2---2-|---2---2---2---2-|

-----6-------6---|-----6-------6---|-----------------|-----------------|
-r-------r-------|-r-------r-------|-----------------|-----------------|
-r-4---4-r-4---4-|-r-4---4-r-4---4-|-2-2-2-2-2-2-2-2-|-2-2-2-2-2-2-2-2-|
-----------------|-----------------|-----------------|-----------------|

-----8-------8---|-----8-------8---|-----------------|-----------------|
-r-------r-------|-r-------r-------|-r---4---r---4---|-r---4---r---4---|
-r-6---6-r-6---6-|-r-6---6-r-6---6-|-r-------r-------|-r-------r-------|
-----------------|-----------------|---2---2---2---2-|---2---2---2---2-|

-----6-------6---|-----6-------6---|-----------------|-----------------|
-r-------r-------|-r-------r-------|-----------------|-----------------|
-r-4---4-r-4---4-|-r-4---4-r-4---4-|-2---------------|-----------------|
-----------------|-----------------|-----------------|-2---------------|

-----------------|
-----------------|
-4---------------|
-----------------|

Chorus 1:09

-----------------|-----------------|-----------------|-----------------|
-6-6-6-6-6-6-6-6-|-4-4-4-4-4-4-4-4-|-----------------|-----------------|
-----------------|-----------------|-4-4-4-4-4-4-4-4-|-4-4-4-4-4-4-4-4-|
-----------------|-----------------|-----------------|-----------------|
                                                                         x3
-----------------|-----------------|-----------------|-----------------|
-----------------|-4-4-4-4-4-4-4-4-|-----------------|-----------------|
-2-2-2-2-2-2-2-2-|-----------------|-4-4-4-4-4-4-4-4-|-4-4-4-4-4-4-4-4-| 
-----------------|-----------------|-----------------|-----------------|

Replay Verse

Replay Chorus x2

Interlude 2:55

-4-4-4-4-4-4-4-4-|-4-4-4-4-4-4-4-4-|-----------------|-----------------|
-----------------|-----------------|-4-4-4-4-4-4-4-4-|-4-4-6-6-6-6-6-6-|
-----------------|-----------------|-----------------|-----------------|
-----------------|-----------------|-----------------|-----------------|

-4-4-4-4-4-4-4-4-|-4-4-4-4-4-4-4-4-|
-----------------|-----------------|
-----------------|-----------------|
-----------------|-----------------|

-----------------|-----------------|-----------------|-----------------|
-6-6-6-6-6-6-6-6-|-4-4-4-4-4-4-4-4-|-----------------|-----------------|
-----------------|-----------------|-4-4-4-4-4-4-4-4-|-4-4-4-4-4-4-4-4-|
-----------------|-----------------|-----------------|-----------------|
                                                                         
-----------------|-----------------|-----------------|-----------------|
-----------------|-4-4-4-4-4-4-4-4-|-----------------|-----------------|
-2-2-2-2-2-2-2-2-|-----------------|-4-4-4-4-4-4-4-4-|-4-4-4-4-4-4-4-4-| 
-----------------|-----------------|-----------------|-----------------|

-----------------|-----------------|
-----------------|-----------------|
-4-4-4-4-4-4-4-4-|-4-4-4-4-4-4-4-4-|
-----------------|-----------------|

-----------------|-----------------|-----------------|-----------------|
-----------------|-4-4-4-4-4-4-4-4-|-----------------|-----------------|
-2-2-2-2-2-2-2-2-|-----------------|-4-4-4-4-4-4-4-4-|-4-4-4-4-4-4-4-4-| x2 
-----------------|-----------------|-----------------|-----------------|

-----------------|-----------------|-----------------|-----------------|
-6-6-6-6-6-6-6-6-|-4-4-4-4-4-4-4-4-|-----------------|-----------------|
-----------------|-----------------|-4-4-4-4-4-4-4-4-|-4-4-4-4-4-4-4-4-|
-----------------|-----------------|-----------------|-----------------|
                                                                         
-----------------|-----------------|-----------------|-----------------|
-----------------|-4-4-4-4-4-4-4-4-|-----------------|-----------------|
-2-2-2-2-2-2-2-2-|-----------------|-4-4-4-4-4-4-4-4-|-4-4-4-4-4-4-4-4-| x2 
-----------------|-----------------|-----------------|-----------------|

-----------------|-----------------|-6-6-6-6-6-6-6-6-|-6-6-6-6-6-6-6-6-|
-----------------|-----------------|-----------------|-----------------|
-4-4-4-4-4-4-4-4-|-4-4-4-4-4-4-4-4-|-----------------|-----------------|
-----------------|-----------------|-----------------|-----------------|

-----------------|
-----------------|
-4---------------|
-----------------|

The End
Suggest correction
What's this?
You can suggest a correction to this tab. Community and Mods will review your correction and vote to approve or reject it.
comments
We did not receive enough feedback on this tab! Please rate:
print report bad tab
1 2 3 4 5
1 comment total.
0 reply
Michi1984 11 wrote on May 29 2010, 07:56 am

Great Tab, sounds really good but it sounds even better if you Tremolo pick 6 on the G-string at the ending and the last 4s on the A string in the Interlude

guest
You may want to rate the tab now too:
select rating
Please do not post tabs as comments. Select "correction" instead!