Oops, an error
Loading. Please wait.

No One Sleeps When Im Awake Chords

version 1
version 1

Whole song

Interactive

16,782 views 30 this week
no commentswrite comment
1 2 3 4 5
excellent!
x 5
add to favorites
launch autoscroll
font size
0
reset
transpose
0
reset
- display chords -
guitar tuner
Tab Pro tools
  • play this tab
  • loop segment
  • change instrument
  • show fretboard
  • metronome
Autoscroll
slow
fast
+/-
esc
set tempo
stop
Contributor
Acoustic Intro:
Chords(G#m, F#, C#, B#, F#, C#)
      
e|--------------------------------------|
B|---------------------------------6----|
G|---------4-----------3---------6------|
D|-------6-----------4---------6--------|
A|-----6-----------4---------4----------|
E|---4-----------2----------------------|

e|--------------------------------------|
B|----------4-----------------------6---|
G|--------4------------3---------6------|
D|------4------------4---------6--------|
A|----2------------4---------4----------|
E|---------------2----------------------|


                 D#m
I've seen people losing all of their faith
                                                             F#
before they knew what they were looking for
                    C#
I swore I'd never ever do it again
              B
till this day
C#                      D#m
Words are all I have to give to you
                                   F#
you never seem to see it my way
C#
Standing in the shadows I hear
              B
people say
                F#
I've got confessions to make
               C#
listen up

no one sleeps when I'm awake

CHORUS:

    B
The dreams I dream
        F#                   C#  
the song I sing for you
                                             B
they're coming from my heart
                 F#                        C#
is my message getting through?
                       G#m 
You know it hurts so bad
A#m                                       C#
just like i knew that it would
              B 
but I'd do it again
    F#                        C#
I'd do it again if I could

I'd do it again if I could.

(Play intro chords again)
Chords(G#m, F#, C#, B#, F#, C#)

e|--------------------------------------|
B|---------------------------------6----|
G|---------4-----------3---------6------|
D|-------6-----------4---------6--------|
A|-----6-----------4---------4----------|
E|---4-----------2----------------------|

e|--------------------------------------|
B|----------4-----------2----------6----|
G|--------4----------3-----------6------|
D|------4----------4-----------6--------|
A|----2----------------------4----------|
E|---------------2----------------------|


D#m
I don't think you know what it's like
                                                                 F#
You should be careful what you're wishing for
         C#
and try to set your ego aside
                 B
you will find
  C#                     D#m
a false piece of mind

you fall behind
                                              F# 
and everybody's getting tired of you
C#
standing in the shadows i hear
               B
people say
                  F#
I've got confessions to make
            C#
listen up

no one sleeps when i'm awake

CHORUS:

    B
The dreams I dream
        F#                         C#  
the song I sing for you
                                             B
they're coming from my heart
                 F#                        C#
is my message getting through?
                       G#m 
You know it hurts so bad
A#m                                       C#
just like i knew that it would
              B 
But I'd do it again
    F#                        C#
I'd do it again if I could


B
Hey, hey, hey
              F#
I want you to know, know, know, know
B
Hey, hey, Oooooh!

G#m, F#, C# 
B, F#, C#, C#

CHORUS B:

                    B
'Cause the dreams that I dream
        F#                                          C#  
the songs that I sing when I lost myself had a different meaning
     B                                  F#
Shut down and closed imagine all of those
C#m
Hundreds of dreams taking place around you
 G#m 
Hurts so bad
F#                                       C#
just like i knew that it would
              B 
But I'd do it again
    F#                        C#
I'd do it again if I could
             B 
but I'd do it again
    F#                        C#
I'd do it again if I could
      C#
I'd do it again
      C#
I'd do it again 
     C#
I'd do it again
     C#
I'd do it again
     C#
If I could.
comments
print report bad tab
I want to post or [tab]
guest
You may want to rate the tab now too:
select rating
Please do not post tabs as comments. Select "correction" instead!