Oops, an error
Loading. Please wait.

Queen Of Apology Bass Tab

846 views 3 this week
no commentswrite comment
1 2 3 4 5
please rate
add to favorites
launch autoscroll
font size
0
reset
guitar tuner
Autoscroll
slow
fast
+/-
esc
set tempo
stop
Help us to improve Ultimate-Guitar.com Take our survey!
×
Author
Difficulty
novice
-------------------------------------------------------------------------------
			     Queen of Apology - The Sounds
-------------------------------------------------------------------------------

Tabbed By : Amberly F

VERSE PART 1:
G|------------------------------------------------------------------|
D|---------------------------------4-4-4-4-4-4-4-4------------------|
A|-4-4-4-4-4-4-4-4-4-4-4-4-2-2-2-2-----------------2-2-2-2-2-2-2-2--|  X2
E|------------------------------------------------------------------|

VERSE PART 2:
G|------------------------------------------------------------------|
D|---------------------------------2-2-2-2-2-2-2-2-4-4-4-4----------|
A|-4-4-4-4-4-4-4-4-4-4-4-4-2-2-2-2-------------------------2-2-2-2--|
E|------------------------------------------------------------------|

VERSE PART 1
VERSE PART 2

CHORUS:
G|--------------------------------------------------------------------|
D|--------------------------------------------------------------------|
A|-2-2-2-2-2-2-2-2-2-4-4-4-4-4-4-4-4-0-0-0-0-0-0-0-0------------------|  X2
E|---------------------------------------------------0-0-0-0-0-0-0-0--|

AFTER CHORUS:
G|------------------------------------------------------------------|
D|------------------------------------------------------------------|
A|-4-4-4-4-4-4-4-4-0-0-0-0-0-0-0-0-----------------2-2-2-2-2-2-2-2--|
E|---------------------------------0-0-0-0-0-0-0-0------------------|

VERSE 1
VERSE 2 
VERSE 1
VERSE 2
CHORUS X3

G|------------------|
D|------------------|
A|-4-4-4-4-4-4-4-4--|  X6
E|------------------|

G|--------------------------------------------------|
D|--------------------------------------------------|
A|-4-4-4-4-6-6-6-6-7-7-7-7-7-7-7-7-9-9-9-9-9-9-9-9--|
E|--------------------------------------------------|

G|----------------------------------------------------------|
D|----------------------------------------------------------|
A|-4-4-4-4-4-4-4-4-4-4-4-4-2-2-2-2-0-0-0-0-0-0-0-0-2-2-2-2--|
E|----------------------------------------------------------|

CHORUS X6

OUTRO:
G|------------------------------------------------------------------|
D|------------------------------------------------------------------|
A|-4-4-4-4-4-4-4-4-4-4-4-4-6-6-6-6-7-7-7-7-7-7-7-7-9-9-9-9-9-9-9-9--|  X3
E|------------------------------------------------------------------|

G|--------------------------------------------------|
D|--------------------------------------------------|
A|-4-4-4-4-4-4-4-4-4-4-4-4-2-2-2-2-0-0-0-0-0-0-0-0--|
E|--------------------------------------------------|


| /  slide up
| \  slide down
| h  hammer-on
| p  pull-off
| ~  vibrato
| +  harmonic
| x  Mute note
===============================================================================
Suggest correction
Give kudos to tab author, rate the tab!
1 2 3 4 5
comments
print report bad tab
guest
You may want to rate the tab now too:
select rating
Wanna post a correction for this tab? Suggest correction