Oops, an error
Loading. Please wait.

Queen Of Apology Tab

version 1
version 1

Whole song

7,529 views 6 this week
no commentswrite comment
1 2 3 4 5
accurate
x 5
add to favorites
launch autoscroll
font size
0
reset
how to read this tab
guitar tuner
Tab Pro tools
  • play this tab
  • loop segment
  • change instrument
  • show fretboard
  • metronome
×
Best way to learn
"Queen Of Apology"
Autoscroll
slow
fast
+/-
esc
set tempo
stop
Contributor
The Sounds
Queen of Apology

i was dying to find this tab, and it doesn't exist. so i did it myself.
questions/comments - jonlynch02@yahoo.com

Intro/Verse
Guitar 1
e|----------------|---------|-------------------|---------------|-----|
B|-5--5-x-5-x-5-5-|-4-4-4-5-|-/10-10--10-10--10-|-5-5-5-4-4-4-5-|-4-5-|
G|-6--6-x-6-x-6-6-|-4-4-4-6-|-/11-11--11-11--11-|-6-6-6-4-4-4-6-|-----| x8
D|----------------|---------|-------------------|---------------|-----|
A|----------------|---------|-------------------|---------------|-----|
E|----------------|---------|-------------------|---------------|-----|

Chorus “I’m fighting this feeling...”
e|-----------------------------------------------------------------|
B|-----------------------------------------------------------------|
G|-4-4-4-4-4-4-4-4-6-6-6-6-6-6-6-6---------------------------------| x2
D|-4-4-4-4-4-4-4-4-6-6-6-6-6-6-6-6-7-7-7-7-7-7-7-7-2-2-2-2-2-2-2-2-|
A|-2-2-2-2-2-2-2-2-4-4-4-4-4-4-4-4-7-7-7-7-7-7-7-7-2-2-2-2-2-2-2-2-|
E|---------------------------------5-5-5-5-5-5-5-5-0-0-0-0-0-0-0-0-|

Bridge
Guitar 1
e|--------------|-------------|
B|-5--5--5-/7-7-|-5--5--4--4/-|
G|-6--6--6-/8-8-|-6--6--4--4/-|
D|--------------|-------------|
A|--------------|-------------|
E|--------------|-------------|

Keyboards
e|-15/-|
B|-----|
G|-----|
D|-----|
A|-----|
E|-----|

Verse and Chorus again

Interlude
e|-------------------------------------------------------------------------|
B|-------------------------------------------------------------------------|
G|-------------------------------------------------------------------------|
D|-11-11-11-11-11-11-11-11-11-11-11-11-13-13-13-13-14-14-14-14-14-14-14-14-|
A|--x--x--x--x--x--x--x--x--x--x--x--x--x--x--x--x--x--x--x--x--x--x--x--x-|
E|--9--9--9--9--9--9--9--9--9--9--9--9-11-11-11-11-12-12-12-12-12-12-12-12-|

e|--------------------------|
B|--------------------------|
G|--------------------------| x2
D|-16-16-16-16--------------|
A|--x--x--x--x--16-14-16-14-|
E|-14-14-14-14--------------|

Chorus
Keyboards Lead
e|-------------------------------------------------------|
B|-------------------------------------------------------|
G|-11--11-9-11-/13--9--9-11/13-13--11/13-13--9-13-11-(8)-| x4
D|-------------------------------------------------------|
A|-------------------------------------------------------|
E|-------------------------------------------------------|

e|-----------------------------------------------------------|
B|-----------------------------------------------------------|
G|-9--11-9-11-/16-14-13-11-9-11/13-13--11/13-13--9-13-11-(8)-|
D|-----------------------------------------------------------|
A|-----------------------------------------------------------|
E|-----------------------------------------------------------|

Outro “This will be the death of me...”
e|-------------------------------------------------------------------------|
B|-------------------------------------------------------------------------|
G|-6-6-6-6-6-6-6-6-6-6-6-6-6-6-6-6-9-9-9-9-9-9-9-9-11-11-11-11-11-11-11-11-| x4
D|-6-6-6-6-6-6-6-6-6-6-6-6-6-6-6-6-9-9-9-9-9-9-9-9-11-11-11-11-11-11-11-11-|
A|-4-4-4-4-4-4-4-4-4-4-4-4-4-4-4-4-7-7-7-7-7-7-7-7--9--9--9--9--9--9--9--9-|
E|-------------------------------------------------------------------------|

Synth Lead
e|---4~~~-------------4~~~-|
B|-5------5-7--4-5--5------|
G|-------------------------| x5
D|-------------------------|
A|-------------------------|
E|-------------------------|

Last Time
e|---------------------------------------------------|
B|---------------------------------------------------|
G|-6-6-6-6-6-6-6-6-6-6-6-6-4-4-4-4-------------------|
D|-6-6-6-6-6-6-6-6-6-6-6-6-4-4-4-4-7-7-7-7-7-7-7-7-7-|
A|-4-4-4-4-4-4-4-4-4-4-4-4-2-2-2-2-7-7-7-7-7-7-7-7-7-|
E|---------------------------------5-5-5-5-5-5-5-5-5-|
comments
print report bad tab
I want to post or [tab]
guest
You may want to rate the tab now too:
select rating
Please do not post tabs as comments. Select "correction" instead!