Oops, an error
Loading. Please wait.

Riot Bass Tab

version 1
version 1

Whole song

Interactive

505 views 2 this week
no commentswrite comment
1 2 3 4 5
please rate
add to favorites
launch autoscroll
font size
0
reset
guitar tuner
Tab Pro tools
  • play this tab
  • loop segment
  • change instrument
  • show fretboard
  • metronome
×
Best way to learn
"Riot"
Autoscroll
slow
fast
+/-
esc
set tempo
stop
Contributor
Difficulty
intermediate
----------------------------------------------------------------------------
                            The Sounds - Riot
----------------------------------------------------------------------------

Tabbed by Vanessa Fournier
email : rock_the_nation_666@hotmail.com (for any request or comment!)

Intro : 

----------------|----------------|----------------|----------------|
--------6-6-6-6-|-4-6-4-2--2-4-4-|--------4-4-4-4-|-2-4-6----------| x2
4-4-4-4---------|----------------|-2-2-2-2--------|-------4--4-4-4-|
----------------|----------------|----------------|----------------|

Only guitar part..

Verse : 

-----------------|-----------------|-----------------|-----------------|
-----------------|---------7-7-7-7-|-----------------|-----------------| x2
-4-4-4-4-4-4-4-4-|-4-4-4-4---------|-----------------|-----------------|
-----------------|-----------------|-0-0-0-0-0-0-0-0-|-2-2-2-2-2-2-2-2-|

Pre chorus :

-----------------|-----------------|-----------------|-----------------|
-7-7-7-7-7-7-7-7-|-6-6-6-6-6-6-6-6-|-----------------|-----------------|
-----------------|-----------------|-4-4-4-4-4-4-4-4-|-2-2-2-2-2-2-2-2-|
-----------------|-----------------|-----------------|-----------------|

-----------------|-----------------|-----------------|-----------------|
-7-7-7-7-7-7-7-7-|-6-6-6-6-6-6-6-6-|-4h6-6-6-6-6-6-r-|-4h6-6-6-6-6-6-r-|
-----------------|-----------------|-----------------|-----------------|
-----------------|-----------------|-----------------|-----------------|

-----------------|-----------------|
-6-6-r-6-6-6-r-6-|-6-6-6-6-6-6-6-6-|
-----------------|-----------------|
-----------------|-----------------|

Chorus :

-----------------|-----------------|-----------------|-----------------|
-----------------|-----------------|-7-7-7-7-7-7-7-7-|-6-6-6-6-6-6-6-6-| x2
-4-4-4-4-4-4-4-4-|-2-2-2-2-2-2-2-2-|-----------------|-----------------|
-----------------|-----------------|-----------------|-----------------|

-----------------|-----------------|-----------------|-----------------|
-----------------|-----------------|-----------------|-----------------|
-4-4-4-4-4-4-4-4-|-4-4-4-4-4-4-4-4-|-4-4-4-4-4-4-4-4-|-4-4-4-4-4-4-4-4-|
-----------------|-----------------|-----------------|-----------------|

Verse :

-----------------|-----------------|-----------------|-----------------|
-----------------|---------7-7-7-7-|-----------------|-----------------| x2
-4-4-4-4-4-4-4-4-|-4-4-4-4---------|-----------------|-----------------|
-----------------|-----------------|-0-0-0-0-0-0-0-0-|-2-2-2-2-2-2-2-2-|

Pre chorus :

-----------------|-----------------|-----------------|-----------------|
-7-7-7-7-7-7-7-7-|-6-6-6-6-6-6-6-6-|-----------------|-----------------|
-----------------|-----------------|-4-4-4-4-4-4-4-4-|-2-2-2-2-2-2-2-2-|
-----------------|-----------------|-----------------|-----------------|

-----------------|-----------------|-----------------|-----------------|
-7-7-7-7-7-7-7-7-|-6-6-6-6-6-6-6-6-|-4h6-6-6-6-6-6-r-|-4h6-6-6-6-6-6-r-|
-----------------|-----------------|-----------------|-----------------|
-----------------|-----------------|-----------------|-----------------|

-----------------|-----------------|
-6-6-r-6-6-6-r-6-|-6-6-6-6-6-6-6-6-|
-----------------|-----------------|
-----------------|-----------------|

Chorus :

-----------------|-----------------|-----------------|-----------------|
-----------------|-----------------|-7-7-7-7-7-7-7-7-|-6-6-6-6-6-6-6-6-| x2
-4-4-4-4-4-4-4-4-|-2-2-2-2-2-2-2-2-|-----------------|-----------------|
-----------------|-----------------|-----------------|-----------------|

Interlude : 

----------------|----------------|----------------|----------------|
--------6-6-6-6-|-4-6-4-2--2-4-4-|--------4-4-4-4-|-2-4-6----------| x2
4-4-4-4---------|----------------|-2-2-2-2--------|-------4--4-4-4-|
----------------|----------------|----------------|----------------|

Chorus :

-----------------|-----------------|-----------------|-----------------|
-----------------|-----------------|-7-7-7-7-7-7-7-7-|-6-6-6-6-6-6-6-6-| x4
-4-4-4-4-4-4-4-4-|-2-2-2-2-2-2-2-2-|-----------------|-----------------|
-----------------|-----------------|-----------------|-----------------|

-----------------|
-----------------|
-4---------------|
-----------------|

The End

| h Hammer-on
| r Rest

comments
We did not receive enough feedback on this tab! Please rate:
print report bad tab
1 2 3 4 5
I want to post or [tab]
guest
You may want to rate the tab now too:
select rating
Please do not post tabs as comments. Select "correction" instead!