Oops, an error
Loading. Please wait.

Rock N Roll Bass Tab

version 1
version 1

Whole song

Interactive

1,585 views 3 this week
no commentswrite comment
1 2 3 4 5
please rate
add to favorites
launch autoscroll
font size
0
reset
guitar tuner
Autoscroll
slow
fast
+/-
esc
set tempo
stop
Help us to improve Ultimate-Guitar.com Take our survey!
×
Author
Difficulty
intermediate
----------------------------------------------------------------------------
                        The Sounds - Rock N' Roll
----------------------------------------------------------------------------

Tabbed by Vanessa Fournier
email : rock_the_nation_666@hotmail.com

Intro(0:18)
-----------------|-----------------|-----------------|-----------------|
-----------------|-----------------|-----------------|-----------------|
-r-6-r-6-r-6-r-6-|-r-6-r-6-r-6-r-6-|-r-6-r-6-r-6-r-6-|-r-6-r-6-r-6-r-6-|
-----------------|-----------------|-----------------|-----------------|

Verse (0:25)
-----------------|-----------------|-----------------|-----------------|
-----------------|-----------------|-----------------|-----------------|
-r-6-r-6-r-6-r-6-|-r-6-r-6-r-6-r-6-|-r-6-r-6-r-6-r-6-|-r-6-r-6-r-4-r-4-|
-----------------|-----------------|-----------------|-----------------|
                                                                         x2
-----------------|-----------------|-----------------|-----------------|
-----------------|-----------------|-----------------|-----------------|
-r-2-r-2-r-2-r-2-|-r-2-r-2-r-2-r-2-|-r-4-r-4-r-4-r-4-|-r-4-r-4-r-4-r-4-|
-----------------|-----------------|-----------------|-----------------|

Chorus (0:55) 
-----------------|-----------------|-----------------|-----------------|
-----------------|-----------------|-----4-----------|-----4-----------|
-r-6-r-6-r-6-r-6-|-r-4-r-4-r-4-r-4-|-5-6---2-r-2-r-4-|-5-6---4-r-4-r-4-|
-----------------|-----------------|-----------------|-----------------|

-----------------|-----------------|-----------------|-----------------|
-----------------|-----------------|-4-4-4-4-4-4-4-4-|-----------------|
-r-6-r-6-r-6-r-6-|-r-4-r-4-r-4-r-4-|-----------------|-2-2-2-2-2-2-2-2-|
-----------------|-----------------|-----------------|-----------------|

------------|
------------|
-6----------|
------------|

Replay Verse

Replay Chorus

(1:59)
-----------------|-----------------|-----------------|-----------------|
-----------------|-----------------|-----------------|-----------------|
-r-2-r-2-r-2-r-2-|-r-4-r-4-r-4-r-4-|-r-6-r-6-r-6-r-6-|-r-4-r-4-r-4-r-4-|
-----------------|-----------------|-----------------|-----------------|

-----------------|-----------------|-----------------|-----------------|
-----------------|-----------------|-----------------|-----------------|
-r-2-r-2-r-2-r-2-|-r-4-r-4-r-4-r-4-|-r-6-r-6-r-6-r-6-|-6-6-6-6-6-6-6-6-|
-----------------|-----------------|-----------------|-----------------|

(2:13)
-----------------|-----------------|-----------------|-----------------|
-----------------|-----------------|-----------------|-----------------|
-----------------|-4-4-4-4-4-4-4-4-|-2-2-2-2-2-2-2-2-|-4-4-4-4-4-4-4-4-| x2
-2-2-2-2-2-2-2-2-|-----------------|-----------------|-----------------|

Chorus (2:29) *you can play that part for the 2 previous chorus too..
-----------------|-----------------|-----------------|-----------------|
-----------------|-----------------|-----------------|-----------------|
-6-6-6-6-6-6-6-6-|-4-4-4-4-4-4-4-4-|-2-2-2-2-2-2-2-2-|-4-4-4-4-4-4-4-4-|
-----------------|-----------------|-----------------|-----------------|
                                                                         x2
-----------------|-----------------|-----------------|-----------------|
-----------------|-----------------|-4-4-4-4-4-4-4-4-|-----------------|
-6-6-6-6-6-6-6-6-|-4-4-4-4-4-4-4-4-|----------------|-2-2-2-2-2-2-2-2-|
-----------------|-----------------|-----------------|-----------------|

Outro
-----------------|-----------------|-----------------|-----------------|
-----------------|-----------------|-----------------|-----------------|
-6-6-6-6-6-6-6-6-|-4-4-4-4-4-4-4-4-|-2-2-2-2-2-2-2-2-|-4-4-4-4-4-4-4-4-|
-----------------|-----------------|-----------------|-----------------|

-----------------|-----------------|-----------------|-----------------|
-----------------|-----------------|-----------------|-----------------|
-6-6-6-6-6-6-6-6-|-4-4-4-4-4-4-4-4-|-----------------|-2-2-2-2-2-2-2-2-|
-----------------|-----------------|-2-2-2-2-2-2-2-2-|-----------------|
Suggest correction
Give kudos to tab author, rate the tab!
1 2 3 4 5
comments
print report bad tab
guest
You may want to rate the tab now too:
select rating
Wanna post a correction for this tab? Suggest correction