Oops, an error
Loading. Please wait.

Running Out Of Turbo Bass Tab

355 views 1 this week
no commentswrite comment
1 2 3 4 5
please rate
add to favorites
launch autoscroll
font size
0
reset
guitar tuner
Autoscroll
slow
fast
+/-
esc
set tempo
stop
Help us to improve Ultimate-Guitar.com Take our survey!
×
Contributor
Difficulty
novice
Tabbed by mafiaboss

Verse
G|-------------------------------------|
D|----------------------------22222222-|  4x
A|-444444444444-2222-00000000----------|
E|-------------------------------------|

Bridge
G|-------------------------------------|
D|-------------------------------------|
A|-22222222-00000000-4444444444444444--|
E|-------------------------------------|

G|-------------------------------------|
D|-------------------------------------|
A|-22222222-00000000-44444444-22222222-|
E|-------------------------------------|

Chorus
G|-------------------------------------|
D|----------22--2-------------22--22---|
A|-44444444---22-2-2-44444444---22--22-|
E|-------------------------------------|

G|-------------------------------------|
D|-------------------------------------|
A|-00000000-22222222-44444444----------|
E|-------------------------------------|

Verse 2x
Bridge

Chorus
G|-------------------------------------|
D|----------22--2-------------22--22---|
A|-44444444---22-2-2-44444444---22--22-|
E|-------------------------------------|

G|-------------------------------------|
D|-------------------------------------|
A|-00000000-22222222-4444444444444444--|
E|-------------------------------------|

Pre-Guitar-Solo
G|-------------------------------------|
D|-------------------------------------|
A|-00000000-22222222-44444444444-2222--|
E|-------------------------------------|

G|---------------------------------------------|
D|---------------------------------------------|
A|-00000000-------------------0000-2222-4------|
E|----------22222222-44444444------------------|

Guitar Solo
G|-------------------------------------|
D|----------22--2-------------22--22---|
A|-44444444---22-2-2-44444444---22--22-|
E|-------------------------------------|

G|-------------------------------------|
D|-------------------------------------|
A|-00000000-22222222-00000000-22222222-|
E|-------------------------------------|

Chorus
G|-------------------------------------|
D|----------22--2-------------22--22---|
A|-44444444---22-2-2-44444444---22--22-|
E|-------------------------------------|

G|-------------------|
D|-------------------|
A|-00000000-22222222-|
E|-------------------|

G|-------------------------------------|
D|----------22--2-------------22--22---|
A|-44444444---22-2-2-44444444---22--22-|
E|-------------------------------------|

G|---------------------------------------|
D|---------------------------------------|
A|-00000000-22222222-00000000-22222222-4-|
E|---------------------------------------|
End
Suggest correction What's this?
You can suggest a correction to this tab. Community and Mods will review your correction and vote to approve or reject it.
comments
We did not receive enough feedback on this tab! Please rate:
print report bad tab
1 2 3 4 5
I want to post or [tab]
guest
You may want to rate the tab now too:
select rating
Please do not post tabs as comments. Select "correction" instead!