Oops, an error
Loading. Please wait.

Seven Days A Week Tab

version 1
version 1

Whole song

Interactive

4,735 views 12 this week
1 commentread comment
1 2 3 4 5
please rate
add to favorites
launch autoscroll
font size
0
reset
how to read this tab
guitar tuner
Autoscroll
slow
fast
+/-
esc
set tempo
stop
Help us to improve Ultimate-Guitar.com Take our survey!
×
Author
Difficulty
-------------------------------------------------------------------------------
                             Seven Days A Week - The Sounds
-------------------------------------------------------------------------------
Tabbed by: capptresskidd
Email:Capptresskidd@yahoo.com

Tuning: Standard
Listen to the song for rhythm
The whole song is basically two chords.
(*number) = play that many times

Intro/verse
e|---------------------------------------------------------------------------|
B|---------------------------------------------------------------------------|
G|--6-x-x-6-x-x-6--6--6-444--------------------------------------------------|
D|--6-x-x-6-x-x-6--6--6-444--------------------------------------------------|
A|--4-x-x-4-x-x-4--4--4-222--------------------------------------------------|
E|---------------------------------------------------------------------------|

In the verse he switches to this about half way through.
e|---------------------------------------------------------------------------|
B|---------------------------------------------------------------------------|
G|--6-x-x-6-x-x-6--6--6--4-4-6-4---6-x-x-6-x-x-6--6--6---6-66----------------|
D|--6-x-x-6-x-x-6--6--6--4-4-6-4---6-x-x-6-x-x-6--6--6---6-66----------------|
A|--4-x-x-4-x-x-4--4--4--2-2-4-2---4-x-x-4-x-x-4--4--4---4-44----------------|
E|---------------------------------------------------------------------------|

Bridge into chorus (Played with synth)
e|---------------------------------------------------------------------------|
B|---------7----------------6---------------4---------------4---6-7----------|
G|--8-10-8---8-10-8---6-8-6---6-8-6---4-6-4---4-6-4---4-6-4---4--------------|
D|---------------------------------------------------------------------------|
A|---------------------------------------------------------------------------|
E|---------------------------------------------------------------------------|

Continued
e|------------------------------------------------------------|
B|--------7---------------------------------------------------|
G|-8-10-8---8-10-8---11-10-8------------4---6---8---10-11-13--|
D|---------------------------11-9-8-----4---6---8---x--x--x---|
A|----------------------------------11--2---4---6---8--9--11--|
E|------------------------------------------------------------|


Chorus
e|---------------------------------------------------------------------------|
B|---------------------------------------------------------------------------|
G|--11-(*32)----6666-6-4-6666/13-13-13-13------------------------------------|
D|--11----------6666-6-4-6666/13-13-13-13------------------------------------|
A|--9-----------4444-4-2-4444/11-11-11-11------------------------------------|
E|---------------------------------------------------------------------------|

e|---------------------------------7-6-4--|
B|-------7----------7-------9------7------|
G|---8-6---8/6-6/8----10-8----10----------|
D|----------------------------------------|
A|----------------------------------------|
E|----------------------------------------|

Under this part of the chorus^ he plays
e|--------------------|
B|--------------------|
G|---4-(*16)-6-(*16)--|
D|---4-------6--------|
A|---2-------4--------|
E|--------------------|

Play verse again
Play Chorus

Other bridge
Part 1- play twice
e|--------------------------------------------------------------------------------------|
B|--------------------------------------------------------------------------------------|
G|----8-8-------8-------8---------------------------------------------------------------|
D|-/8-----8--88---8--66---6-------------------------------------------------------------|
A|--------------------------------------------------------------------------------------|
E|--------------------------------------------------------------------------------------|

Part 2
e|--------------------------------------------------------------------------------------|
B|--------------------------------------------------------------------------------------|
G|---8-8---------11-10-8----------------------------------------------------------------|
D|-8-----8--8-11---------11-9-8---------------------------------------------------------|
A|--------------------------------------------------------------------------------------|
E|--------------------------------------------------------------------------------------|

Chorus

Outro
e|---------------------------------------------------------------------------------|
B|---------------------------------------------------------------------------------|
G|-6/11----------------------------------------------------------------------------|
D|-6/11----------------------------------------------------------------------------|
A|-4/9-----------------------------------------------------------------------------|
E|---------------------------------------------------------------------------------|


| /  slide up
| \  slide down
| h  hammer-on
| p  pull-off
| ~  vibrato
| +  harmonic
| x  Mute note
===============================================================================
Suggest correction
What's this?
You can suggest a correction to this tab. Community and Mods will review your correction and vote to approve or reject it.
comments
We did not receive enough feedback on this tab! Please rate:
print report bad tab
1 2 3 4 5
1 comment total.
0 reply
CapptressKidd 112 wrote on May 9 2007, 06:01 pm

Sorry the chorus is

e|---------------------------------------------------------------------------|
B|---------------------------------------------------------------------------|
G|--11-(*24)-10-(*8)---6666-6-4-6666/13-13-13-13-----------------------------|
D|--11-------10--------6666-6-4-6666/13-13-13-13-----------------------------|
A|--9--------8---------4444-4-2-4444/11-11-11-11-----------------------------|
E|---------------------------------------------------------------------------|

guest
You may want to rate the tab now too:
select rating
Please do not post tabs as comments. Select "correction" instead!