Oops, an error
Loading. Please wait.

Song With A Mission Bass Tab

version 1
version 1

Whole song

Interactive

1,625 views 1 this week
no commentswrite comment
1 2 3 4 5
please rate
add to favorites
launch autoscroll
font size
0
reset
guitar tuner
Tab Pro tools
  • play this tab
  • loop segment
  • change instrument
  • show fretboard
  • metronome
×
Best way to learn
"Song With A Mission"
Autoscroll
slow
fast
+/-
esc
set tempo
stop
Contributor
Difficulty
novice
-------------------------------------------------------------------------------
			     "Song With A Mission" - The Sounds
-------------------------------------------------------------------------------

Tabbed By : Amberly F.

INTRO:
G|------------------|
D|------------------|
A|-4-4-4-4-4-4-4-4--|  X4
E|------------------|

VERSE:
G|-----------------------------------------------------------------|
D|-----------------------------------------------------------------|
A|-4-4-4-4-4-4-4-4-4-4-4-4-4-4-4-4-2-2-2-2-2-2-2-2-----------------|  X6
E|-------------------------------------------------2-2-2-2-2-2-2-2-|

BEFORE CHORUS:
G|------------------|
D|------------------|
A|------------------|  X4
E|-5-5-5-5-5-5-5-5--|

CHORUS:
G|----------------------------------------------------------|
D|----------------------------------------------------------|
A|-----------------4-4-4-4-4-4-4-4-7---7---4-4-4-4-4-4-4-4--|
E|-2-2-2-2-2-2-2-2-------------------7---7------------------|

G|----------------------------------------------------------|
D|----------------------------------------------------------|
A|-4-4-4-4-4-4-4-4-7-7-7-7-7-7-7-7-5-5-5-5-7-7-7-7-9-9-9-9--|
E|----------------------------------------------------------|

BEFORE VERSE:
G|-------------------------------------------------------------------|
D|-------------------------------------------------------------------|
A|----------------------------------2-2-2-2-2-2-2-2------------------| 
E|-2-2-2-2-2-2-2-2-2-2-2-2-2-2-2-2------------------2-2-2-2-2-2-2-2--|

BACK TO VERSE -- X2

THEN TO CHORUS

CHORUS 2:
G|----------------------------------------------------------------------|
D|----------------------------------------------------------------------|
A|-9-9-9-9-9-9-9-9-9-4-4-4-4-4-4-4-4-4-7-7-7-7-7-7-7-7-4-4-4-4-4-4-4-4--|
E|----------------------------------------------------------------------|

G|----------------------------------------------------------|
D|----------------------------------------------------------|
A|-4-4-4-4-4-4-4-4-7-7-7-7-7-7-7-7-5-5-5-5-7-7-7-7-9-9-9-9--|
E|----------------------------------------------------------|

G|------------------|
D|------------------|
A|------------------|  X10
E|-2-2-2-2-2-2-2-2--|

G|----------------------------------|
D|----------------------------------|
A|-----------------9-9-9-9-9-9-9-9--|
E|-5-5-5-5-7-7-7-7------------------|

G|------------------|
D|------------------|
A|------------------|  X2
E|-2-2-2-2-2-2-2-2--|

G|----------------------------------|
D|----------------------------------|
A|-----------------9-9-9-9-9-9-9-9--|
E|-5-5-5-5-7-7-7-7------------------|

CHORUS X2

G|-------------|
D|-------------|
A|-5~----7~----|
E|-------------|

G|------------------|
D|------------------|
A|------------------|  X2
E|-2-2-2-2-2-2-2-2--|


| /  slide up
| \  slide down
| h  hammer-on
| p  pull-off
| ~  vibrato
| +  harmonic
| x  Mute note
===============================================================================
comments
We did not receive enough feedback on this tab! Please rate:
print report bad tab
1 2 3 4 5
I want to post or [tab]
guest
You may want to rate the tab now too:
select rating
Please do not post tabs as comments. Select "correction" instead!