Oops, an error
Loading. Please wait.

Song With A Mission Tab

version 1
version 1

Whole song

Interactive

9,832 views 3 this week
1 commentread comment
1 2 3 4 5
please rate
add to favorites
launch autoscroll
font size
0
reset
how to read this tab
guitar tuner
Autoscroll
slow
fast
+/-
esc
set tempo
stop
Help us to improve Ultimate-Guitar.com Take our survey!
×
Author
Difficulty
intermediate
-------------------------------------------------------------------------------
                     Song with a Mission - The Sounds
-------------------------------------------------------------------------------
Tabbed by: Jtmoney27
Email: jorentitus@hotmail.com

This is my first tab and I thought The Sounds would be a good one to start 
with. They have such catchy guitar rythms and their lead singer is easy on 
the eyes to boot!
 

Tuning: Standard

u=upstroke
d=downstroke
s=stattico (Short stroke that is quickly muted afterwards)
r=let note ring

Intro and Verses

e|-----------|---------------------------|-----------|-------------------|
a|-----------|--------------12-12-12-11--|-----------|-------------------|
d|--9-9-9-8--|--11-11-11-11-11-11-11-11--|--8-8-8-9--|--3-3-3-3-4-4-4/6--|
g|--9-9-9-9--|--11-11-11-11-11-11-11-11--|--9-9-9-9--|--4-4-4-4-4-4-4/6--|
b|-----------|---------------------------|-----------|-------------------|
E|-----------|---------------------------|-----------|-------------------|
      u                   d                   u               d

Pre-Chorus (only before the 1st Chorus)
End first verse with
e|--------------|-------------|-------------|-------------|--------------|
a|--------------|-------------|-------------|-------------|-5-5-5-5-5-5--|
d|--3-3-3-3-4-4-|-------------|-------------|-------------|-6-6-6-6-6-6--|
g|--4-4-4-4-4-4-|-------------|-------------|-7-7-7-7-7-7-|-7-7-7-7-7-7--|
b|--------------|-------------|-------------|-7-7-7-7-7-7-|-7-7-7-7-7-7--|
E|--------------|-5-5-5-5-5-5-|-5-5-5-5-5-5-|-5-5-5-5-5-5-|-5-5-5-5-5-5--|

Chorus

F# C#m E C#m F# E D E F#

e|----------------|-------------|-------------|-------------|
a|--11-11-11-x-11-|--5-5-5-x-5--|--9-9-9-x-9--|--5-5-5-x-5--|
d|--11-11-11-x-11-|--6-6-6-x-6--|--9-9-9-x-9--|--6-6-6-x-6--|
g|--11-11-11-x-11-|--6-6-6-x-6--|--9-9-9-x-9--|--6-6-6-x-6--|
b|--9--9--9--x-9--|--4-4-4-x-4--|--7-7-7-x-7--|--4-4-4-x-4--|
E|----------------|-------------|-------------|-------------|
    
e|-----------------|-------------|--------------|----------------------|
a|--11-11-11-x-11--|--9-9-9-x-9--|--------------|----------------------|
d|--11-11-11-x-11--|--9-9-9-x-9--|--7-7-x-9-9-x-|-9/11-11-9-11-9-9-9s--|
g|--11-11-11-x-11--|--9-9-9-x-9--|--7-7-x-9-9-x-|-9/11-11-9-11-9-9-9s--|
b|--9--9--9--x-9---|--7-7-7-x-7--|--5-5-x-7-7-x-|-7/9--9--7-9--7-7-7s--|
E|-----------------|-------------|--------------|----------------------|
                                                                     

2nd Verse
   
e|-----------|---------------------------|-----------|-------------------|
a|-----------|--------------12-12-12-11--|-----------|-------------------|
d|--9-9-9-8--|--11-11-11-11-11-11-11-11--|--8-8-8-9--|--3-3-3-3-4-4-4/6--|
g|--9-9-9-9--|--11-11-11-11-11-11-11-11--|--9-9-9-9--|--4-4-4-4-4-4-4/6--|
b|-----------|---------------------------|-----------|-------------------|
E|-----------|---------------------------|-----------|-------------------|
      u                   d                   u               d

Chorus x 2

e|----------------|-------------|-------------|-------------|
a|--11-11-11-x-11-|--5-5-5-x-5--|--9-9-9-x-9--|--5-5-5-x-5--|
d|--11-11-11-x-11-|--6-6-6-x-6--|--9-9-9-x-9--|--6-6-6-x-6--|
g|--11-11-11-x-11-|--6-6-6-x-6--|--9-9-9-x-9--|--6-6-6-x-6--|
b|--9--9--9--x-9--|--4-4-4-x-4--|--7-7-7-x-7--|--4-4-4-x-4--|
E|----------------|-------------|-------------|-------------|
    
e|-----------------|-------------|---------------------------------|
a|--11-11-11-x-11--|--9-9-9-x-9--|---------------------------------|
d|--11-11-11-x-11--|--9-9-9-x-9--|--7-7-x-9-9-x-9/11-11-9-11-9-9---|
g|--11-11-11-x-11--|--9-9-9-x-9--|--7-7-x-9-9-x-9/11-11-9-11-9-9---|
b|--9--9--9--x-9---|--7-7-7-x-7--|--5-5-x-7-7-x-7/9--9--7-9--7-7---|
E|-----------------|-------------|---------------------------------|

e|----------------|-------------|-------------|-------------|
a|--11-11-11-x-11-|--5-5-5-x-5--|--9-9-9-x-9--|--5-5-5-x-5--|
d|--11-11-11-x-11-|--6-6-6-x-6--|--9-9-9-x-9--|--6-6-6-x-6--|
g|--11-11-11-x-11-|--6-6-6-x-6--|--9-9-9-x-9--|--6-6-6-x-6--|
b|--9--9--9--x-9--|--4-4-4-x-4--|--7-7-7-x-7--|--4-4-4-x-4--|
E|----------------|-------------|-------------|-------------|
    
e|-----------------|-------------|--------------|------------------------|
a|--11-11-11-x-11--|--9-9-9-x-9--|--------------|------------------------|
d|--11-11-11-x-11--|--9-9-9-x-9--|--7-7-x-9-9-x-|-9/11-11-9-11-9-9--11~--|
g|--11-11-11-x-11--|--9-9-9-x-9--|--7-7-x-9-9-x-|-9/11-11-9-11-9-9--11~--|
b|--9--9--9--x-9---|--7-7-7-x-7--|--5-5-x-7-7-x-|-7/9--9--7-9--7-7--9-~--|
E|-----------------|-------------|--------------|------------------------|
                                                         Let the F#5 ring

Bridge

e|-----------|------------------------|-----------------------------------|
a|-----------|------------------------|-----------------------------------|
d|--11~r-----|--11r----9-77-99-9/11---|--11s-9-9/11-11-9-11s-11s-11s-11s--|
g|--11~r-----|--11r----9-77-99-9/11---|--11s-9-9/11-11-9-11s-11s-11s-11s--|
b|--9~-r-----|--9-r----7-55-77-7/9----|--9s- 7-7/9--9--7-9-s-9s--9s--9s---|
E|-----------|------------------------|-----------------------------------|
                                     


e|--------------------------------------------|
a|--------------------------------------------|
d|--9/11/9---------------9/11-1111-9-11-9-11--|
g|--9/11/9--7-777-9999---9/11-1111-9-11-9-11--|
b|--7/9/-7--7-777-9999---7/9--9-9--7-9--7-9---|
E|----------5-555-7777------------------------|
                                   

Chorus x 2

Then Finish with..

e|-----------------------------------------------------------------------|
a|-----------------------------------------------------------------------|
d|--7r-----7-x-9r----9-9-9-9-9-9-11-------------------------12-12-12-11--|
g|--7r-----7-x-9r----------------------9-9-9-8--11-11-11-11-11-11-11-11--|
b|--5r-----5-x-7r----------------------9-9-9-9--11-11-11-11-11-11-11-11--|
E|-----------------------------------------------------------------------|
    
e|-----------------------------|
a|-----------------------------|
d|--8-8-8-9--3-3-3-3-4-4-4/6s--|
g|--9-9-9-9--4-4-4-4-4-4-4/6s--|
b|-----------------------------|
E|-----------------------------|


Thats it.. the rythm can be a little tricky so make sure to listen to the track to get it right.

| /  slide up
| \  slide down
| h  hammer-on
| p  pull-off
| ~  vibrato
| +  harmonic
| x  Mute note
===============================================================================
Suggest correction new What's this?
You can suggest a correction to this tab. Community and Mods will review your correction and vote to approve or reject it.
comments
We did not receive enough feedback on this tab! Please rate:
print report bad tab
1 2 3 4 5
1 comment total.
0 reply
Stuart90 564 wrote on January 21 2008, 06:30 am

Great song and I think not enough people know about The Sounds, at least in UK.

guest
You may want to rate the tab now too:
select rating
Please do not post tabs as comments. Select "correction" instead!