Oops, an error
Loading. Please wait.

Song With A Mission Bass Tab

version 2
version 2

Whole song

Interactive

447 views 3 this week
no commentswrite comment
1 2 3 4 5
please rate
add to favorites
launch autoscroll
font size
0
reset
guitar tuner
Tab Pro tools
  • play this tab
  • loop segment
  • change instrument
  • show fretboard
  • metronome
Autoscroll
slow
fast
+/-
esc
set tempo
stop
Contributor
Difficulty
novice
The Sounds
Song With A Mission
Dying To Say This To You

approx. 151 bpm
Intro
   W           e e e e e e e e   e e e e e e e e
| ||--------||-------------------|-------------------||
|4||--------||o------------------|------------------o||
|4||--rest--||o--4-4-4-4-4-4-4-4-|-4-4-4-4-4-4-4-4--o||
| ||--------||-------------------|-------------------||

    e e e e e e e e   e e e e e e e e   e e e e e e e e   e e e e e e e e 
||------------------|-----------------|-----------------|------------------||
||o-----------------|-----------------|-----------------|-----------------o||
||o-4-4-4-4-4-4-4-4-|-4-4-4-4-4-4-4-4-|-2-2-2-2-2-2-2-2-|-----------------o||
||------------------|-----------------|-----------------|-2-2-2-2-2-2-2-2--||

  Verse 1                                                                 x4
    e e e e e e e e   e e e e e e e e   e e e e e e e e   e e e e e e e e 
||------------------|-----------------|-----------------|------------------||
||o-----------------|-----------------|-----------------|-----------------o||
||o-4-4-4-4-4-4-4-4-|-4-4-4-4-4-4-4-4-|-2-2-2-2-2-2-2-2-|-----------------o||
||------------------|-----------------|-----------------|-2-2-2-2-2-2-2-2--||

  e e e e e e e e                         e e  e  e  e  e  e  e
|-----------------|----------|----------|------------------------|
|-----------------|----o/----|----o/----|------------------------|
|-0-0-0-0-0-0-0-0-|----/o----|----/o----|-0-0-/12-12-12-12-12-12-|
|-----------------|----------|----------|------------------------|

  Chorus
   e e e e e e e e    e  e e e e e e e   e e e e e e e e   e e e e e e e e 
||-----------------|-------------------|-----------------|-----------------|
||-----------------|-------------------|-----------------|-----------------|
||-9-9-9-9-9-9-9-4-|-(4)-4-4-4-4-4-4-4-|-7-7-----7-7-----|-4-4-4-4-4-4-4-9-|
||-----------------|-------------------|-----7-7-----7-7-|-----------------|

   e  e e e e e e e    e  e e e e e e e   e e e e e e e e   e e e q   e e e
|-------------------|-------------------|-----------------|-----------------|
|-------------------|-------------------|-----------------|-----------------|
|-(9)-9-9-9-9-9-9-7-|-(7)-7-7-7-7-7-7-7-|-5-5-5-5-7-7-7-7-|-9-9-7-9---7-9-7-|
|-------------------|-------------------|-----------------|-----------------|
 
               Pre-Verse
     e   E     e e e e e e e e            e e e e e e e e   e e e e e e e e 
| |---------||-----------------|--------|-----------------|-----------------|
|1|---------||-----------------|---o/---|-----------------|-----------------|
|4|-(7)-\---||-----------------|---/o---|-2-2-2-2-2-2-2-2-|-----------------|
| |---------||-2-2-2-2-2-2-2-2-|--------|-----------------|-2-2-2-2-2-2-2-2-|

  Verse 2                                                __________________
                                                        |1.
    e e e e e e e e   e e e e e e e e   e e e e e e e e | e e e e e e e e 
||------------------|-----------------|-----------------|------------------||
||o-----------------|-----------------|-----------------|-----------------o||
||o-4-4-4-4-4-4-4-4-|-4-4-4-4-4-4-4-4-|-2-2-2-2-2-2-2-2-|-----------------o||
||------------------|-----------------|-----------------|-2-2-2-2-2-2-2-2--||

 ________________  
|2.                Chorus 2
| e e e e e E Q     e e e e e e e e    e  e e e e e e e   e e e e e e e e
|----------------||------------------|-------------------|-----------------|
|----------------||o-----------------|-------------------|-----------------|
|-2-2-2-2-2------||o-9-9-9-9-9-9-9-4-|-(4)-4-4-4-4-4-4-4-|-7-7-----7-7-----|
|----------------||------------------|-------------------|-----7-7-----7-7-|

  e e e e e e e e    e  e e e e e e e    e  e e e e e e e   e e e e e e e e
|-----------------|-------------------|-------------------|-----------------|
|-----------------|-------------------|-------------------|-----------------|
|-4-4-4-4-4-4-4-9-|-(9)-9-9-9-9-9-9-7-|-(7)-7-7-7-7-7-7-7-|-5-5-5-5-7-7-7-7-|
|-----------------|-------------------|-------------------|-----------------|

                     Bridge
  e e e q   e e e     e e e e e e e e               e e e e e e e e
|------------------||------------------|----------|-------2---------|
|-----------------o||o-----------------|----o/----|-4-----------2---|
|-9-9-7-9---7-9-7-o||o-----------------|----/o----|-----------------|
|------------------||--2-2-2-2-2-2-2-2-|----------|---2-2---2-2---2-|

  e e e e e e e e     e e e e e e e e   e e e e e e e e   e e e e e e e e
|------------------||-------2---------|-----------------|-----------------|
|---4-----2---2-4-o||-4-----------2---|---4-----2---2-4-|-----------------|
|-----------------o||-----------------|-----------------|-0-0-0-0-2-2-2-2-|
|-2---2-2---2------||---2-2---2-2---2-|-2---2-2---2-----|-----------------|

  e e e e e e e e   e e e e e e e e   e e e e e e e e   e e e e e e e e 
|-----------------|-------2---------|-----------------|-----------------|
|-----------------|-4-----------2---|---4-----2---2-4-|-----------------|
|-----------------|-----------------|-----------------|-0-0-0-0-2-2-2-2/|
|-2-2-2-2-2-2-2-2-|---2-2---2-2---2-|-2---2-2---2-----|-----------------|

                   Chorus 3
  e e e e e e e E     e e e e e e e e    e  e e e e e e e   e e e e e e e e
|-----------------||------------------|-------------------|-----------------|
|-----------------||o-----------------|-------------------|-----------------|
|/9-9-9-9-9-9-9\--||o-9-9-9-9-9-9-9-4-|-(4)-4-4-4-4-4-4-4-|-7-7-----7-7-----|
|-----------------||------------------|-------------------|-----7-7-----7-7-|

  e e e e e e e e    e  e e e e e e e    e  e e e e e e e   e e e e e e e e
|-----------------|-------------------|-------------------|-----------------|
|-----------------|-------------------|-------------------|-----------------|
|-4-4-4-4-4-4-4-9-|-(9)-9-9-9-9-9-9-7-|-(7)-7-7-7-7-7-7-7-|-5-5-5-5-7-7-7-7-|
|-----------------|-------------------|-------------------|-----------------|
                   
  e e e q   e e e     e e e e e e e e            e e e e e e e e 
|------------------||-----------------|--------|-----------------|--------|
|-----------------o||-----------------|---o/---|-----------------|---o/---|
|-9-9-7-9---7-9-7-o||-5-5-5-5-5-5-5-5-|---/o---|-7-7-7-7-7-7-7-7-|---/o---|
|------------------||-----------------|--------|-----------------|--------|

  e e e e e e e e              W        W
|-----------------|----------|--------|--------||
|-----------------|----o/----|--------|--------||
|-----------------|----/o----|--rest--|--rest--||
|-2-2-2-2-2-2-2-2-|----------|--------|--------||
comments
We did not receive enough feedback on this tab! Please rate:
print report bad tab
1 2 3 4 5
I want to post or [tab]
guest
You may want to rate the tab now too:
select rating
Please do not post tabs as comments. Select "correction" instead!