Oops, an error
Loading. Please wait.

Tony The Beat Bass Tab

version 1
version 1

Whole song

Interactive

4,780 views 6 this week
4 commentsread comments
1 2 3 4 5
excellent!
x 2
add to favorites
launch autoscroll
font size
0
reset
guitar tuner
Tab Pro tools
  • play this tab
  • loop segment
  • change instrument
  • show fretboard
  • metronome
Autoscroll
slow
fast
+/-
esc
set tempo
stop
Contributor
Difficulty
novice
SONG:   Tony the Beat
ARTIST: The Sounds
ALBUM:  Dying to Say This to You
YEAR:   2006
TRACK:  3
TUNING: GDAE (standard)


This is a great, catchy song, and a fun one to play. Great music video for it, too;
if you haven't seen it yet, check it out: http://www.youtube.com/watch?v=epU5AFUbLr4




  (Stop, stop, stop...)


(0:05)
G|------------------------------|
D|----------5>------------------|
A|----3>--------5>--7>----5>----|    ×2
E|------------------------------|
  (Stop, stop, stop...)


  Hey, let's kick it


(0:23)
G|-------------------------------------------------------------------------------|
D|------------7-9------------7-9------------7-9------------7-9------------7-9----|
A|----7--7--7--------7--7--7--------7--7--7--------7--7--7--------7--7--7--------|
E|-------------------------------------------------------------------------------|
  Stop, just lick it
  Let's just start it
  'Cause, 'cause it's so easy
  You like it my way, and I know it


(0:32)
G|----------4~----4--6--7--8----|
D|------------------------------|
A|----2--2-2-----2--4--5--6-----|
E|------------------------------|
  So let's do it
  Do it, do it, real good


(0:36)
G|-------------------------------------------------|
D|------------7-9------------7-9------------7-9----|
A|----7--7--7--------7--7--7--------7--7--7--------|    ×2
E|-------------------------------------------------|
  Hot, it's sweaty
  Now, I'm ready
  Just take it off
  'Cause, 'cause you tease me
  I like it that way
  And you know it


(0:48)
G|----------4~----4--6--7--8----|
D|------------------------------|
A|----2--2-2-----2--4--5--6-----|
E|------------------------------|
  So let's do it
  Do it, do it, real good


(0:52)
G|-------------------------------------------------|
D|--------44-55-77-5>----------5>------------------|
A|-----------------------3>--------5>--7>----5>----|
E|----0>-------------------------------------------|
  (Oh...) This song is not for you lovers
  (Woo...) Don't stop, push it now
  And I will give it all to you
  Don't you stop now
  And try to give it all up


(1:06) Listen carefully, that last E is all he strums until dropping to the B
G|-------------------------------------------------------------------------|
D|------------7-9----------------7-9------------7-9------------7-9---------|
A|----7--7--7--------7--stop!--7-------7--7--7--------7--7--7--------7>----|
E|-------------------------------------------------------------------------|
  Hey, let's kick it
  Stop, just lick it
  Let's just start it
  'Cause, 'cause it's so easy
  You like it my way, and I know it


(1:18)
G|----------4~----4--6--7--8----|
D|------------------------------|
A|----2--2-2-----2--4--5--6-----|
E|------------------------------|
  So let's do it
  Do it, do it, real good
  

(1:22)
G|----------------------|
D|----------------------|
A|----3>----0>----2>----|
E|----------------------|
  Hot, it's sweaty
  Now, I'm ready
  Just take it off
  'Cause, 'cause you tease me


(1:28)
G|-------------------------------------------------|
D|--------44-55-77-5>----------5>------------------|
A|-----------------------3>--------5>--7>----5>----|
E|----0>-------------------------------------------|
  (Oh...) This song is not for you lovers
  (Woo...) Don't stop, push it now
  And I will give it all to you
  Don't you stop now
  And try to give it all up


(1:44)
G|------------------------------|
D|----------5>------------------|
A|----3>--------5>--7>----5>----|
E|------------------------------|
  Don't stop, push it now
  And I will give it all to you
  Don't you stop now
  And try to give it all up


(1:52)
G|------------------------|
D|----------5>------------|
A|----3>--------5>--7~----|
E|------------------------|
  Don't stop, push it now
  And I will give it all to you


  (rest during synth solo, I think -- hard to tell)


(2:11) Hold the strumming E all the way until you   * * *  get to these Cs
G|--------------------------------------------------------------|
D|--------------5>----------------------------------------------|
A|----7>------------------0>----5>----7>------------3-3-3-------|
E|--------------------------------------------------------3>----|


(2:30)
G|-------------------------------------------------|
D|--------44-55-77-5>----------5>------------------|
A|-----------------------3>--------5>--7>----5>----|
E|----0>-------------------------------------------|
  (Oh...) This song is not for you lovers
  (Woo...) Don't stop, push it now
  And I will give it all to you
  Don't you stop now
  And try to give it all up


(2:45)
G|------------------------------|
D|----------5>------------------|
A|----3>--------5>--7>----5>----|
E|------------------------------|
  Don't stop, push it now
  Get down and do what you've been told
  Don't you stop now
  And try to give it all up


(2:53)
G|------------------------------|
D|----------5>------------------|
A|----3>--------5>--7>----5>----|    ×2
E|------------------------------|
  Don't stop, push it (stop, stop, stop, stop)
  Don't stop, push it (stop, stop, stop, stop)
  Don't stop, push it (stop, stop, stop, stop)
  Don't stop, push it (stop, stop, stop, stop)


(3:07)
G|------------------------------|
D|----------5>------------------|
A|----3>--------5>--7>----5>----|
E|------------------------------|
  Don't stop, push it now
  And I will give it all to you
  Don't you stop now
  And try to give it all up


(3:15)
G|------------------------------|
D|----------5>------------------|
A|----3>--------5>--7>----5>----|
E|------------------------------|
  Don't stop, push it now
  Get down and do what you've been told
  Don't you stop now
  And try to give it all up
comments
We did not receive enough feedback on this tab! Please rate:
print report bad tab
1 2 3 4 5
4 comments total. Showing first comments.
0 reply
erinerinerin wrote on August 24 2008, 06:12 pm

SWEET JESUS. I'VE BEEN LOOKING FOR A TONY THE BEAT TAB FOREVER!! Do you play guitar? It kills me because I can't figure out the guitar part. But thaaaaaank you :D

0 reply
kane5187 wrote on September 1 2008, 01:07 pm

I play a little guitar but probably not enough to tab it out. Maybe someday...

0 reply
kane5187 wrote on September 1 2008, 01:08 pm

And here's a correction, I wrote down the wrong numbers. When it looks like this:

G|-------------------|
D|------------7-9----|
A|----7--7--7--------|
E|-------------------|


It should be like this:

G|-------------------|
D|------------5-7----|
A|----7--7--7--------|
E|-------------------|

I want to post or [tab]
guest
You may want to rate the tab now too:
select rating
Please do not post tabs as comments. Select "correction" instead!