Oops, an error
Loading. Please wait.

Shadow Acoustic chords

85 views 3 this week
1 commentread comment
1 2 3 4 5
x 3
add to favorites
×
Save as Personal and add changes to this tab that will be seen only by you. Learn more ›
×
You can save this tab as Personal to edit and correct it or add notes. All changes will be seen only by you. Learn more »
launch autoscroll
font size
0
reset
transpose
0
reset
simplify chords
display chords
guitar tuner
edit
Autoscroll
slow
fast
+/-
esc
set tempo
stop
Author
Strumming
There is no strumming pattern for this song yet. and get +5 IQ
The Southland "Shadow". Tab by Rebecca Hubble and Jason Welsh

The E at the end of the verses is really quick before the next verse. During the chorus on D, it jumps
to E for a quick second before back to A. You can use F#Cm if the F# 

Bass note sounds to heavy. On the verse D and Bm7 would sound good on two guitars.

A      x02220
D/C#m7 x0423x (D/C#m 7th)
Fm/Cm  x4422x
Bm7    x24232


F#m    244222
C#m    x46654  
A      57765x
D      x5777xx
E      x7999xx
E      022100
Bm     x24432


[Intro] (x3)                                                   

e|-----------------------------------------------0-----------0-----------|
B|-----2----------2---------3----------3------------------------0--------|
G|---2---2-2-2--2---2-2-2-2---2-2-2--2---2-2-2-2---2-2-2-2-2-------------|
D|-----------------------------------------------------------------------|
A|-----------------------------------------------------------------------|
E|-----------------------------------------------------------------------|


[Fill]

e|-----------------------|
B|-----14/7---7/10--10/5-|    
G|-----------------------|
D|-----------------------|
A|-----------------------|
E|-----------------------|


[Intro]

(Acoustic)  

A  D/C#m7  F#/C#m


[Verse 1]

 A              Bm7          F#m
Don't matter how rotten you feel
F#m
there's a shadow in the morning
F#m
splits my head wide   

E A                   Bm7
    memory keeps me back on my heels
F#m
   like a cold wind
F#m
like a shadow it follows me round


[Interlude] 

(Play A and fill)

e|------4--5---9-------|
B|------5--5-----------|
G|------4--4-----------|
D|---------------------|
A|---------------------|
E|---------------------|


[Chorus]1

    C#m      A            D         A
we ride the line between twist and crime
         C#m    A         D       A
from the angels i seem a distant cry
             Fm     E        Bm7
but this is how i am and you are
         D
and it's real life


(repeat intro)


[Verse 2]

  A          Bm7                 F#m
   I take a soul - then disappear
F#m
look for cover
F#m
helicopters circle above

E A                    Bm7           F#m
   we've worn your stone down to a sphere
F#m
you keep growing like a shadow
F#m                       
when the sun's going down


[Interlude] 

(Play A and fill)

e|------4--5---9-------|
B|------5--5-----------|
G|------4--4-----------|
D|---------------------|
A|---------------------|
E|---------------------|


[Chorus] 2

     C#m      A            D          A
we ride the line between twist and crime
         C#m          A         D        A
from the angels I seem a distant cry
             F#m        E       Bm
that this is how i am and you are
        D
and it's real life


[Solo] (x4)

e|---------------------------------------|
B|---------------------------------------|
G|---------------------------------------|
D|---------------------------------------|
A|---------------------4-5-5-5-5h7-4-----|
E|-2-2-2-2h4-4-4--5-5--------------------|


[Intro] 


[Chorus] 3

  C#m      A            D          A
we ride the line between twist and crime
         C#m          A         D        A
it seems plain like day as the years go by
             F#m        E       Bm
that this is how i am and you are
        D
and it's real life

************************************

| h  Hammer-on
| /  Slide up

************************************

            
            
Suggest correction
Creating personal tab
Creating personal tab
You can edit any tab online and save it as your Personal.

You can edit, replace or remove any tab part or add personal notes – all changes will be seen only by you.

Personal tabs can be accessed anytime from any device, even offline.
Learn more »
Give kudos to tab author, rate the tab!
1 2 3 4 5
comments
print report bad tab
1 comment total.
0 reply
alexthejordan 41 Feb 15, 2017 02:57 PM

thank you so much for posting this.

guest
You may want to rate the tab now too:
select rating
Wanna post a correction for this tab? Suggest correction