Oops, an error
Loading. Please wait.

Multiply And Divide Tab

600 views 1 this week
no commentswrite comment
1 2 3 4 5
2 more votes to show rating
add to favorites
launch autoscroll
font size
0
reset
how to read this tab
guitar tuner
Autoscroll
slow
fast
+/-
esc
set tempo
stop
Help us to improve Ultimate-Guitar.com Take our survey!
×
Author
Tabbed for two guitars.


E----------|--------|--------|--------|--------|--------|--------|
B----------|--------|--------|--------|--------|--------|--------|
G---------9|99-----9|99-----9|99-----9|99-----9|99-----9|99-----9|
D----------|--------|--------|--------|--------|--------|--------|
A---------7|77-----7|77-----7|77-----7|77-----7|77-----7|77-----7|
E----------|--------|--------|--------|--------|--------|--------|
|     
E----------|--------|--------|--------|--------|--------|--------|
B----------|--------|--------|--------|--------|--------|--------|
G----------|--------|--------|--------|--------|--------|--------|
D----------|--------|--------|--------|--------|999999--|555555--|
A----------|--------|--------|--------|--------|777777--|333333--|
E----------|--------|--------|--------|--------|--------|--------|


E----------|--------|--------|--------|--------|--------|--------|
B----------|--------|--------|--------|--------|--------|--------|
G--99-----9|99-----9|99-----9|99-----9|99-----9|99-----9|99-----9|
D----------|--------|--------|--------|--------|--------|--------|
A--77-----7|77-----7|77-----7|77-----7|77-----7|77-----7|77-----7|
E----------|--------|--------|--------|--------|--------|--------|
|     
E----------|--------|--------|--------|--------|--------|--------|
B----------|--------|--------|--------|--------|--------|--------|
G----------|--------|--------|--------|--------|--------|--------|
D--777777--|999999--|999999--|555555--|777777--|--------|999999--|
A--555555--|777777--|777777--|333333--|555555--|777777--|777777--|
E----------|--------|--------|--------|--------|555555--|--------|


E----------|--------|--------|--------|--------|--------|--------|
B----------|--------|--------|--------|--------|--------|--------|
G--99-----9|99-----9|99-----9|99-----9|99-----9|99-----9|99------|
D----------|--------|--------|--------|--------|--------|------99|
A--77-----7|77-----7|77-----7|77-----7|77-----7|99-----7|77----77|
E----------|--------|--------|--------|--------|--------|--------|
|
E----------|--------|--------|--------|--------|--------|--------|
B----------|--------|--------|--------|--------|--------|--------|
G----------|--------|--------|--------|--------|--------|--------|
D--555555--|777777--|--------|999999--|555555--|777777--|99999999|
A--333333--|555555--|777777--|777777--|333333--|555555--|77777777|
E----------|--------|555555--|--------|--------|--------|--------|


E----------|----------|----------------|---------------|--------|
B----------|----------|----------------|---------------|--------|
G----------|----------|----------------|---------------|--------|
D--99999999|9999991111|1212121212121212|121212121212710|99999999|
A--77777777|777777 9 9|1010101010101010|1010101010105-8|77777777|
E----------|----------|----------------|---------------|--------|
|
E----------|----------|----------------|---------------|--------|
B----------|----------|----------------|---------------|--------|
G----------|----------|----------------|---------------|--------|
D--99999999|9999991111|5 5 5 5 5 5 5 5 |5 5 5 5 5 5 710|99999999|
A--77777777|777777 9 9|3 3 3 3 3 3 3 3 |3 3 3 3 3 3 5 8|77777777|
E----------|----------|----------------|---------------|--------|


E------------|----------------|---------------|--------|----------|
B------------|----------------|---------------|--------|----------|
G------------|----------------|---------------|--------|----------|
D--9999991111|1212121212121212|121212121212710|99999999|9999991111|
A--777777 9 9|1010101010101010|1010101010105-8|77777777|777777 9 9|
E------------|----------------|---------------|--------|----------|
|
E------------|----------------|---------------|--------|----------|
B------------|----------------|---------------|--------|----------|
G------------|----------------|---------------|--------|----------|
D--9999991111|5 5 5 5 5 5 5 5 |5 5 5 5 5 5 710|99999999|9999991111|
A--777777 9 9|3 3 3 3 3 3 3 3 |3 3 3 3 3 3 5 8|77777777|777777 9 9|
E------------|----------------|---------------|--------|----------|


E------------------|---------------|--------|----------|--------|--------|
B------------------|---------------|--------|----------|--------|--------|
G------------------|---------------|--------|----------|--------|--------|
D--1212121212121212|121212121212710|99999999|9999991111|77777777|77777777|
A--1010101010101010|1010101010105-8|77777777|777777 9 9|55555555|55555555|
E------------------|---------------|--------|----------|--------|--------|
|
E------------------|---------------|--------|----------|--------|--------|
B------------------|---------------|--------|----------|--------|--------|
G------------------|---------------|--------|----------|--------|--------|
D--5 5 5 5 5 5 5 5 |5 5 5 5 5 5 710|99999999|9999991111|77777777|77777777|
A--3 3 3 3 3 3 3 3 |3 3 3 3 3 3 5 8|77777777|777777 9 9|55555555|55555555|
E------------------|---------------|--------|----------|--------|--------|


E----------|--------|--------|--------|--------|--------|--------|
B----------|--------|--------|--------|--------|--------|--------|
G----------|--------|--------|--------|--------|--------|--------|
D--55555555|55555577|99999999|99999977|55555555|55555577|99999999|
A--33333333|33333355|77777777|77777755|33333333|33333355|77777777|
E----------|--------|--------|--------|--------|--------|--------|
|
E----------|--------|--------|--------|--------|--------|--------|
B----------|--------|--------|--------|--------|--------|--------|
G----------|--------|--------|--------|--------|--------|--------|
D--55555555|55555577|--------|------77|55555555|55555577|--------|
A--33333333|33333355|22222222|22222255|33333333|33333355|22222222|
E----------|--------|00000000|000000--|--------|--------|00000000|


E----------|--------|--------|--------|--------|--------|--------|
B----------|--------|--------|--------|--------|--------|--------|
G----------|--------|--------|--------|--------|--------|--------|
D--99999999|55555555|55555577|99999999|99999977|55555555|55555577|
A--77777777|33333333|33333355|77777777|77777755|33333333|33333355|
E----------|--------|--------|--------|--------|--------|--------|
|
E----------|--------|--------|--------|--------|--------|--------|
B----------|--------|--------|--------|--------|--------|--------|
G----------|--------|--------|--------|--------|--------|--------|
D----------|55555555|55555577|--------|------77|55555555|55555577|
A--00000000|33333333|33333355|22222222|22222255|33333333|33333355|
E--33333333|--------|--------|00000000|000000--|--------|--------|


E----------|--------|--------|--------|--------|--------|--------|
B----------|--------|--------|--------|--------|--------|--------|
G----------|--------|99-----9|99-----9|99-----9|99-----9|99-----9|
D--99999999|99999999|--------|--------|--------|--------|--------|
A--77777777|77777777|77-----7|77-----7|77-----7|77-----7|77-----7|
E----------|--------|--------|--------|--------|--------|--------|
|
E----------|--------|--------|--------|--------|--------|--------|
B----------|--------|--------|--------|--------|--------|--------|
G----------|--------|--------|--------|--------|--------|--------|
D----------|--------|999999--|555555--|777777--|999999--|999999--|
A--22222222|22222222|777777--|333333--|555555--|777777--|777777--|
E--00000000|00000000|--------|--------|--------|--------|--------|


E----------|--------|--------|--------|--------|--------|--------|
B----------|--------|--------|--------|--------|--------|--------|
G--99-----9|99-----9|99-----9|99-----9|99-----9|99-----9|99-----9|
D----------|--------|--------|--------|--------|--------|--------|
A--77-----7|77-----7|77-----7|77-----7|77-----7|77-----7|77-----7|
E----------|--------|--------|--------|--------|--------|--------|
|     
E----------|--------|--------|--------|--------|--------|--------|
B----------|--------|--------|--------|--------|--------|--------|
G----------|--------|--------|--------|--------|--------|--------|
D--555555--|777777--|--------|999999--|555555--|777777--|--------|
A--333333--|555555--|777777--|777777--|333333--|555555--|777777--|
E----------|--------|555555--|--------|--------|--------|555555--|


E----------|--------|--------|--------|--------|----------|
B----------|--------|--------|--------|--------|----------|
G--99-----9|99-----9|99-----9|99------|--------|----------|
D----------|--------|--------|------99|99999999|9999991111|
A--77-----7|77-----7|77-----7|77----77|77777777|777777 9 9|
E----------|--------|--------|--------|--------|----------|
|
E----------|--------|--------|--------|--------|----------|
B----------|--------|--------|--------|--------|----------|
G----------|--------|--------|--------|--------|----------|
D--999999--|555555--|777777--|99999999|99999999|9999991111|
A--777777--|333333--|555555--|77777777|77777777|777777 9 9|
E----------|--------|--------|--------|--------|----------|


E------------------|---------------|--------|----------|----------------|
B------------------|---------------|--------|----------|----------------|
G------------------|---------------|--------|----------|----------------|
D--1212121212121212|121212121212710|99999999|9999991111|1212121212121212|
A--1010101010101010|1010101010105-8|77777777|777777 9 9|1010101010101010|
E------------------|---------------|--------|----------|----------------|
|
E------------------|---------------|--------|----------|----------------|
B------------------|---------------|--------|----------|----------------|
G------------------|---------------|--------|----------|----------------|
D--5 5 5 5 5 5 5 5 |5 5 5 5 5 5 710|99999999|9999991111|5 5 5 5 5 5 5 5 |
A--3 3 3 3 3 3 3 3 |3 3 3 3 3 3 5 8|77777777|777777 9 9|3 3 3 3 3 3 3 3 |
E------------------|---------------|--------|----------|----------------|


E-----------------|--------|----------|----------------|---------------|
B-----------------|--------|----------|----------------|---------------|
G-----------------|--------|----------|----------------|---------------|
D--121212121212710|99999999|9999991111|1212121212121212|121212121212710|
A--1010101010105-8|77777777|777777 9 9|1010101010101010|1010101010105-8|
E-----------------|--------|----------|----------------|---------------|
|
E-----------------|--------|----------|----------------|---------------|
B-----------------|--------|----------|----------------|---------------|
G-----------------|--------|----------|----------------|---------------|
D--5 5 5 5 5 5 710|99999999|9999991111|5 5 5 5 5 5 5 5 |5 5 5 5 5 5 710|
A--3 3 3 3 3 3 5 8|77777777|777777 9 9|3 3 3 3 3 3 3 3 |3 3 3 3 3 3 5 8|
E-----------------|--------|----------|----------------|---------------|


E----------|----------|--------|--------|--------|--------|--------|
B----------|----------|--------|--------|--------|--------|--------|
G----------|----------|--------|--------|99-----9|99-----9|99-----9|
D--99999999|9999991111|77777777|77777777|--------|--------|--------|
A--77777777|777777 9 9|55555555|55555555|77-----7|77-----7|77-----7|
E----------|----------|--------|--------|--------|--------|--------|
|
E----------|----------|--------|--------|--------|--------|--------|
B----------|----------|--------|--------|--------|--------|--------|
G----------|----------|--------|--------|--------|--------|--------|
D--99999999|9999991111|77777777|77777777|999999--|555555--|777777--|
A--77777777|777777 9 9|55555555|55555555|777777--|333333--|555555--|
E----------|----------|--------|--------|--------|--------|--------|                                   


E----------|--------|--------|--------|--------|--------|--------|
B----------|--------|--------|--------|--------|--------|--------|
G--99-----9|99-----9|99-----9|99-----9|99-----9|99-----9|99-----9|
D----------|--------|--------|--------|--------|--------|--------|
A--77-----7|77-----7|77-----7|77-----7|77-----7|77-----7|77-----7|
E----------|--------|--------|--------|--------|--------|--------|
|     
E----------|--------|--------|--------|--------|--------|--------|
B----------|--------|--------|--------|--------|--------|--------|
G----------|--------|--------|--------|--------|--------|--------|
D--999999--|999999--|555555--|777777--|--------|999999--|555555--|
A--777777--|777777--|333333--|555555--|777777--|777777--|333333--|
E----------|--------|--------|--------|555555--|--------|--------|


E----------|--------|--------|--------|--------|--------|--------|
B----------|--------|--------|--------|--------|--------|--------|
G--99-----9|99-----9|99-----9|99-----9|99-----9|99------|--------|
D----------|--------|--------|--------|--------|------99|99999999|
A--77-----7|77-----7|77-----7|77-----7|77-----7|99----77|77777777|
E----------|--------|--------|--------|--------|--------|--------|
|                                                   
E----------|--------|--------|--------|--------|--------|--------|
B----------|--------|--------|--------|--------|--------|--------|
G----------|--------|--------|--------|--------|--------|--------|
D--777777--|--------|999999--|555555--|777777--|99999999|99999999|
A--555555--|777777--|777777--|333333--|555555--|77777777|77777777|
E----------|555555--|--------|--------|--------|--------|--------|


E----------|--------|--------|--------|--------|--------|--------|
B----------|--------|--------|--------|--------|--------|--------|
G----------|--------|--------|--------|--------|--------|--------|
D--99999999|99999999|99999999|99999999|99999999|99999999|99999999|
A--77777777|77777777|77777777|77777777|77777777|77777777|77777777|
E----------|--------|--------|--------|--------|--------|--------|
|
E----------|--------|--------|--------|--------|--------|--------|
B----------|--------|--------|--------|--------|--------|--------|
G----------|--------|--------|--------|--------|--------|--------|
D--99999999|99999999|99999999|99999999|99999999|99999999|99999999|
A--77777777|77777777|77777777|77777777|77777777|77777777|77777777|
E----------|--------|--------|--------|--------|--------|--------|


E----------|--------|--------|--------|--------|--------|--------|
B----------|--------|--------|--------|--------|--------|--------|
G----------|--------|--------|--------|--------|--------|--------|
D--55555555|55555577|99999999|99999977|55555555|55555577|99999999|
A--33333333|33333355|77777777|77777755|33333333|33333355|77777777|
E----------|--------|--------|--------|--------|--------|--------|
|
E----------|--------|--------|--------|--------|--------|--------|
B----------|--------|--------|--------|--------|--------|--------|
G----------|--------|--------|--------|--------|--------|--------|
D--55555555|55555577|--------|------77|55555555|55555577|--------|
A--33333333|33333355|22222222|22222255|33333333|33333355|22222222|
E----------|--------|00000000|000000--|--------|--------|00000000|


E----------|--------|--------|--------|--------|--------|--------|
B----------|--------|--------|--------|--------|--------|--------|
G----------|--------|--------|--------|--------|--------|--------|
D--99999999|55555555|55555577|99999999|99999977|55555555|55555577|
A--77777777|33333333|33333355|77777777|77777755|33333333|33333355|
E----------|--------|--------|--------|--------|--------|--------|
|
E----------|--------|--------|--------|--------|--------|--------|
B----------|--------|--------|--------|--------|--------|--------|
G----------|--------|--------|--------|--------|--------|--------|
D----------|55555555|55555577|--------|------77|55555555|55555577|
A--00000000|33333333|33333355|22222222|22222255|33333333|33333355|
E--33333333|--------|--------|00000000|000000--|--------|--------|


E----------|
B----------|
G----------|
D---9~-----|
A---7~-----|
E----------|
|     
E----------|
B----------|
G----------|
D—-9~------|
A—-7~------|
E----------|

End of song.
Suggest correction
Give kudos to tab author, rate the tab!
1 2 3 4 5
comments
print report bad tab
guest
You may want to rate the tab now too:
select rating
Wanna post a correction for this tab? Suggest correction