Oops, an error
Loading. Please wait.

Photograph Tab

129 views 1 this week
no commentswrite comment
1 2 3 4 5
3 more votes to show rating
add to favorites
launch autoscroll
font size
0
reset
how to read this tab
guitar tuner
Autoscroll
slow
fast
+/-
esc
set tempo
stop
Help us to improve Ultimate-Guitar.com Take our survey!
×
Author
Difficulty
novice
SONG:   Photograph
ARTIST: The Soviettes
ALBUM:  LP III
YEAR:   2005
TRACK:  13
TUNING: eBGDAE (standard)


(0:00)
e|----------------------------------------------|
B|----------------------------------------------|
G|------------5>--------5>------------5>--------|
D|----2>--3>--5>----2>--5>--5>----2>--5>--5>----|
A|----2>--3>--3>----2>--3>--5>----2>--3>--5>----|
E|----0>--1>--------0>------3>----0>------3>----|
  It's been a while since the letter, but she's still got this photograph
  And every day that goes by, she thinks "Boy, are you coming back?"


(0:14)
e|------------------------------|
B|------------------------------|
G|------------7>------4-4-5>----|
D|----7>--2>--7>--7>--4-4-5>----|
A|----7>--2>--5>--7>--2-2-3>----|
E|----5>--0>------5>------------|
  She broke down last night
  But her friends say it's too soon to think like that
  It feels like the hoping and waiting could bring on a heart attack


(0:24)
e|--------------------------------|
B|--------------------------------|
G|--------5>------------5>--------|
D|----2>--5>--5>----2>--5>--5>----|
A|----2>--3>--5>----2>--3>--5>----|
E|----0>------3>----0>------3>----|
  Well, every morning she wakes up and she stares at that photograph
  She crossed her fingers in hopes it will bring him back home at last


(0:33)
e|------------------------------|
B|------------------------------|
G|------------7>------4-4-5>----|
D|----7>--2>--7>--7>--4-4-5>----|
A|----7>--2>--5>--7>--2-2-3>----|
E|----5>--0>------5>------------|
  She's back on the phone, but they say there's too much of a waiting list
  He's left you behind and alone
  She thinks "Boy, I can't handle this"


(0:42)
e|------------------------------------------------------|
B|------------------------------------------------------|
G|----9>--5>----------------------9>--5>----------------|
D|----9>--3>--2>----5>--7>--2>----9>--5>--2>--5>--7>----|
A|----7>--3>--2>----5>--7>--2>----7>--3>--2>--5>--7>----|
E|------------0>----3>--5>--0>------------0>--3>--5>----|


(0:52)
e|--------------------------------------|
B|--------------------------------------|
G|--------8>--------------8>------------|
D|----5>--8>--2>--3>--5>--8>--2>--3>----|
A|----5>--6>--2>--3>--5>--6>--2>--3>----|
E|----3>------0>--1>--3>------0>--1>----|
  Is there a next time about the last time?
  Was there enough attention?
  And does he know she loves him?
  She saw them coming
  She felt her heart break
  She got the message
  You know, the one that says that he's never coming back


(1:11)
e|----------|
B|----------|
G|----5>----|
D|----5>----|
A|----3>----|   (intermittent strumming)
E|----------|


(1:20)
e|-------------------------------------------|
B|-------------------------------------------|
G|-------------------------------------------|
D|-------------------------------------------|
A|----10-10-10--9-9-9--7-7-7--5-3-2-7-5bb----|    ×2
E|-------------------------------------------|


(1:29)
|------------------------------------------|
|------------------------------------------|
|------------------------------------------|
|------------------------------------------|
|----7-7-7--5-5-5--3-3-3--2-0----2--2bb----|    ×2
|-----------------------------0------------|


(1:38)
e|------------------------------|
B|------------------------------|
G|------------------------------|
D|------------------------------|
A|-------2-2b----0--------------|
E|----0-------------3--0~~~~----|
Suggest correction
Give kudos to tab author, rate the tab!
1 2 3 4 5
comments
print report bad tab
guest
You may want to rate the tab now too:
select rating
Wanna post a correction for this tab? Suggest correction