Oops, an error
Loading. Please wait.

Whoa Tab

154 views 1 this week
no commentswrite comment
1 2 3 4 5
please rate
add to favorites
launch autoscroll
font size
0
reset
how to read this tab
guitar tuner
Autoscroll
slow
fast
+/-
esc
set tempo
stop
Help us to improve Ultimate-Guitar.com Take our survey!
×
Author
Difficulty
novice
SONG:   Whoa
ARTIST: The Soviettes
ALBUM:  LP III
YEAR:   2005
TRACK:  4
TUNING: eBGDAE (standard)


(0:00)
e|-----------------------------------|
B|-----------------------------------|
G|----7>--5-5-5-7>-------5-5-5-7>----|
D|----7>--5-5-5-7>--5>---5-5-5-7>----|
A|----5>--3-3-3-5>--5>---3-3-3-5>----|    ×2
E|------------------3>---------------|
  Doesn't seem that long ago
  We never rocked with the baby-o
  I almost lost my head
  It was that song we heard on the radio


(0:08)
e|----------------------------|
B|----------------------------|
G|------------7>--------------|
D|----3>--5>--7>----3>--5>----|
A|----3>--5>--5>----3>--5>----|
E|----1>--3>--------1>--3>----|
  I said whoa-whoa-oh-oh-oh
  (Goddammit Annie, say goodnight!)
  I said whoa-whoa


(0:15)
e|-----------------------------------|
B|-----------------------------------|
G|----7>--5-5-5-7>-------5-5-5-7>----|
D|----7>--5-5-5-7>--5>---5-5-5-7>----|
A|----5>--3-3-3-5>--5>---3-3-3-5>----|    ×2
E|------------------3>---------------|
  They said they fought so long
  That's why they sang that song on the radio
  I almost lost my head you know
  So damn that song on the radio


(0:23)
e|----------------------------|
B|----------------------------|
G|------------7>--------------|
D|----3>--5>--7>----3>--5>----|
A|----3>--5>--5>----3>--5>----|
E|----1>--3>--------1>--3>----|
  I said whoa-whoa-oh-oh-oh
  (Goddammit Annie, say goodnight!)
  I said whoa-whoa-oh-oh-oh


(0:29)
e|------------------------------------------------------------|
B|------------------------------------------------------------|
G|----3>--8>--7>------------7>----3>--8>--7>------------------|
D|----3>--8>--7>----3>--5>--7>----3>--8>--7>----3>--5>--7>----|
A|----1>--6>--5>----3>--5>--5>----1>--6>--5>----3>--5>--7>----|
E|------------------1>--3>----------------------1>--3>--5>----|
  Yeah!
  C'mon!


(0:38) - solo
e|--------------------------------------------------------|
B|--------------------------------------------------------|
G|--------------------------------------------------------|
D|----7--7--7--7---7-5-3------------------------5---------|
A|------------------------5-----55-8--5-8-5-8-5---8-55----|
E|--------------------------------------------------------|


(0:42)
e|-------------------------------------------------------------------------------|
B|-------------------------------------------------------------------------------|
G|---------------------------------------------------------------7~--------7~----|
D|----------------------------------3b---3---3---5b--3-----------7~--------7~----|
A|----3h5-55--3h5-55--3h5-55--3h5-5----5---5---5--------5--55~---5~--------5~----|
E|-------------------------------------------------------------------------------|


(0:54)
e|------------------|
B|------------------|
G|------------7>----|
D|----3>--5>--7>----|
A|----3>--5>--5>----|    ×3
E|----1>--3>--------|
  I said whoa-whoa-oh-oh-oh
  (Goddammit Annie, say goodnight!)
  I said whoa-whoa-oh-oh-oh
  (Goddammit Annie, say goodnight!)
  I said whoa-whoa-oh-oh-oh
  (Goddammit, just say goodnight!)


(1:06)
e|-------------------------|
B|-------------------------|
G|------------3>--8>--7----|
D|----3>--5>--3>--8>--7----|
A|----3>--5>--1>--6>--5----|
E|----1>--3>---------------|
  I said whoa-whoa-oh-oh-oh
Suggest correction
Give kudos to tab author, rate the tab!
1 2 3 4 5
comments
print report bad tab
guest
You may want to rate the tab now too:
select rating
Please do not post tabs as comments. Select "correction" instead!