Oops, an error
Loading. Please wait.

Bizzare Love Triangle Tab

7,343 views 3 this week
no commentswrite comment
1 2 3 4 5
please rate
add to favorites
launch autoscroll
font size
0
reset
how to read this tab
guitar tuner
Tab Pro tools
  • play this tab
  • loop segment
  • change instrument
  • show fretboard
  • metronome
×
Best way to learn
"Bizzare Love Triangle"
Autoscroll
slow
fast
+/-
esc
set tempo
stop
Difficulty
novice
Hi pipz!?!? iTs my first time to construct a tab..... sabagay nalaka lng met at2oy nga 
bsta maala u ti timing n........ Betag Boyz From Km.6


[Intro]
       F              G            Em         F
e|------0-------------0-------------0------------0---------|
B|-----1---1---------3--3----------0-0----------1-1--------|
G|----2-----2-------4----4--------0---0--------2---2-------|
D|---3-------3-----5------5------2-----2------3-----3------|
A|---------------------------------------------------------|
E|---------------------------------------------------------|
       F               G                Em          F
e|---------------------5----------------0-------------0--------|
B|--h1--1------------3---3------------0---0----------1-1-------|
G|-------2---------4-------4--------0-------0-------2---2------|
D|---3----3------5-----------5----2-----------0----3-----3-----|
A|-------------------------------------------------------------|
E|-------------------------------------------------------------|

Verse1


      F              G            Em         F
e|------0-------------0-------------0------------0---------|
B|-----1---1---------3--3----------0-0----------1-1--------|
G|----2-----2-------4----4--------0---0--------2---2-------|
D|---3-------3-----5------5------2-----2------3-----3------|
A|---------------------------------------------------------|
E|---------------------------------------------------------|
       F               G                Em          F
e|---------------------5----------------0-------------0--------|
B|--h1--1------------3---3------------0---0----------1-1-------|
G|-------2---------4-------4--------0-------0-------2---2------|
D|---3----3------5-----------5----2-----------0----3-----3-----|
A|-------------------------------------------------------------|
E|-------------------------------------------------------------|

Verse II (drums, bass,)comes in


  GUITAR 1

   F              G            Em         F
e|------0-------------0-------------0------------0---------|
B|-----1---1---------3--3----------0-0----------1-1--------|
G|----2-----2-------4----4--------0---0--------2---2-------|
D|---3-------3-----5------5------2-----2------3-----3------|
A|---------------------------------------------------------|
E|---------------------------------------------------------|
       F               G                Em          F
e|---------------------5----------------0-------------0--------|
B|--h1--1------------3---3------------0---0----------1-1-------|
G|-------2---------4-------4--------0-------0-------2---2------|
D|---3----3------5-----------5----2-----------0----3-----3-----|
A|-------------------------------------------------------------|
E|-------------------------------------------------------------|

       GUIATAR 2

            F                    G             Em              F
E|--------8---8------------------10------------7---------------8---------|
B|------10------10-----------12-----12-------9---9----------10--10-------|
G|----10----------10-------12---------12---9-------9------10------10-----|
D|-----------------------------------------------------------------------|
A|-----------------------------------------------------------------------|
E|-----------------------------------------------------------------------|


 GUITAR 1

   F              G            Em         F
e|------0-------------0-------------0------------0---------|
B|-----1---1---------3--3----------0-0----------1-1--------|
G|----2-----2-------4----4--------0---0--------2---2-------|
D|---3-------3-----5------5------2-----2------3-----3------|
A|---------------------------------------------------------|
E|---------------------------------------------------------|
       F               G                Em          F
e|---------------------5----------------0-------------0--------|
B|--h1--1------------3---3------------0---0----------1-1-------|
G|-------2---------4-------4--------0-------0-------2---2------|
D|---3----3------5-----------5----2-----------0----3-----3-----|
A|-------------------------------------------------------------|
E|-------------------------------------------------------------|

        GUITAR 2

           F                G             Em              F
E|-------8--------8-----10-------10------7------7-----8-------8----------|
B|------10---10--------12--12------------9--9--------10--10--------------|
G|------10-----10------12-----12---------9----9------10----10------------|
D|-----------------------------------------------------------------------|
A|-----------------------------------------------------------------------|
E|-----------------------------------------------------------------------|

verse 3  DISTORTED


       F             G              Em                F
E|----------------------------------------------------------------------|
B|----------------------------------------------------------------------|
G|----------------------------------------------------------------------|
D|--3--3-----------5--5--------------2-2-------------3--3---------------|
A|--3--3-----------5--5--------------2-2-------------3--3---------------|
E|--1--1-----------3--3--------------0-0-------------1--1---------------|

     F             G              Em                F
E|--------------------------------------------3*------------------------|
B|--------------------------------------------3*------------------------|
G|--------------------------------------------3*------------------------|
D|--3--3-----------5--5--------------2-2-------------3--3---------------|
A|--3--3-----------5--5--------------2-2-------------3--3---------------|
E|--1--1-----------3--3--------------0-0-------------1--1---------------|


solo

E|--------------------------------------------------------------------|
B|--------------------------2-----------------------------------------|
G|-----2--5-5-5-5---2--5-------2--5555--2---5-------------------------|
D|--------------------------------------------------------------------|
A|--------------------------------------------------------------------|
E|--------------------------------------------------------------------|
comments
We did not receive enough feedback on this tab! Please rate:
print report bad tab
1 2 3 4 5
I want to post or [tab]
guest
You may want to rate the tab now too:
select rating
Please do not post tabs as comments. Select "correction" instead!