Oops, an error
Loading. Please wait.

Blank Expression Tab

97 views 3 this week
no commentswrite comment
1 2 3 4 5
x 4
add to favorites
launch autoscroll
font size
0
reset
how to read this tab
guitar tuner
×
Best way to learn
"Blank Expression"
Autoscroll
slow
fast
+/-
esc
set tempo
stop
Author
Difficulty
  follow
intermediate
About this tab version
Transcribed as close to the original as possible. Standard tuning, minor pentatonic scale in the key of D. Was this info helpful? Yes No
     **********     THE SPECIALS - BLANK EXPRESSION (solo)         **********

Tabbed by Joseph Gil.


Noticed no one had transcribed the solo for this song yet, so I thought I'd give it a go.


 [Chorus]                             /[Solo]
(...on your face)
   D     D       G    G   G      G       D     D      D      D      
e|---------|--------------------------|------------------8-10-10~~--10p8------|
B|---------|----------------7-7h8-9-9/|10~~-----------10-----------------10~~-|
G|---------|--------------7-----------|---------------------------------------|
D|---------|--------------------------|---------------------------------------|
A|---------|--------------------------|---------------------------------------|
E|---------|--------------------------|---------------------------------------|


   D      D     D      D         G     G     G      G       D     D     D    D
e|---------------8-----------8--|-------------------8---|--------------------------|
B|----------8/10-10--8-6-8-8/10-|-6-----------6-8/10-10-|10\8-8-8\6-6-6------------|
G|------------------------------|---7~~-----7-----------|---------------7~~--------|
D|------------------------------|-----------------------|--------------------------|
A|------------------------------|-----------------------|--------------------------|
E|------------------------------|-----------------------|--------------------------|               
                                                                                                 /[Verse]
                                                                                                   
         A         A          A        A         G    G      G   G        D      D     D    D      G
e|-------10------10-----10------10--------------|-------------------|-----------------------------|-----|
B|---8/10----8/10---8/10----8/10----8/10-10-8~~-|-------8/10--8-6-8-|6h8p6----5h6p5-6\------------|-----|
G|-7--------------------------------------------|-------------------|------7--------------5h7p5---|-----|
D|----------------------------------------------|-------------------|---------------------------7-|-5---|
A|----------------------------------------------|-------------------|-----------------------------|-----|
E|----------------------------------------------|-------------------|-----------------------------|-----|



************************************

| h   Hammer-on
| p   Pull-off
| /   Slide up
| \   Slide down
| ~~   Vibrato

************************************

Joseph Gil
4th November 2016
Suggest correction
comments
print report bad tab
guest
You may want to rate the tab now too:
select rating
Wanna post a correction for this tab? Suggest correction