Oops, an error
Loading. Please wait.

Hey Little Rich Girl bass

version 2
version 2

Whole song

196 views 1 this week
no commentswrite comment
1 2 3 4 5
3 more votes to show rating
add to favorites
×
Save as Personal and add changes to this tab that will be seen only by you. Learn more ›
×
You can save this tab as Personal to edit and correct it or add notes. All changes will be seen only by you. Learn more »
launch autoscroll
font size
0
reset
guitar tuner
edit
Autoscroll
slow
fast
+/-
esc
set tempo
stop
Author
This is the studio version, he plays it differently live. 


[Intro]

G|---------------------------------------------------------------------------|
D|---------------------------------------------------------------------------|
A|------3-----------3-----------2--5--2--------------------------------------|
E|---5-----0--3--5-----0--3--3-----------3-----------------------------------|


[Verse]

G|---------------------------------------------------------------------------|
D|---------------------------------------------------------------------------|
A|------3-----------3-----------2--5--2-----2--5--2--------------------------|
E|---5-----0--3--5-----0--3--3-----------3-----------------------------------|

G|---------------------------------------------------------------------------|
D|------------------------------------2--4h5--4h5--4h5--4h5------------------|
A|------3-----------3-----------2--5-----------------------------------------|
E|---5-----0--3--5-----0--3--3-----------------------------------------------|


[Chorus]

                                  (This part follows the vocals)
G|------------2--------------4-----------------------------------------------|
D|------2--5-----5-----4--7-----7---5--7--5--4--2--4--2--0-------------------|
A|---3--------------5--------------------------------------------------------|
E|---------------------------------------------------------------------------|

G|------------2--------------4-----------------------------------------------|
D|------2--5-----5-----4--7-----7--5-----------------------------------------|
A|---3--------------5-----------------7--5--2--------------------------------|
E|---------------------------------------------3-----------------------------|

(Repeat verse again)


[Verse]

G|---------------------------------------------------------------------------|
D|---------------------------------------------------------------------------|
A|------3-----------3-----------2--5--2-----2--5--2--------------------------|
E|---5-----0--3--5-----0--3--3-----------3-----------------------------------|

G|---------------------------------------------------------------------------|
D|------------------------------------2--4h5--4h5--4h5--4h5------------------|
A|------3-----------3-----------2--5-----------------------------------------|
E|---5-----0--3--5-----0--3--3-----------------------------------------------|


[Neville Staple's moment]
(Phrase one)

G|--------------------------------------------------------------------------------------|
D|--------------------------------------------------------------------------------------|
A|--3-3-3-3--3--3-3-3-3--3----------------------------7-7-7-7--7-7-7-7-7-7--5-5-5-5--5--|
E|--------------------------5-5-5-5--5----5-5-5-5--5------------------------------------|

G|-------------------------------------------------------------------------------|
D|-------------------------------------------------------------------------------|
A|--3-3-3-3--3--3-3-3-3--3--------------------------7-7-7-7-7-7-7-7-7-7-7-7-7----|
E|--------------------------5-5-5-5--5--5-5-5-5--5-------------------------------|
                                                                               (keep hitting this note)
(Repeat phrase one) 

G|-------------------------------------------------------------------------------------------|
D|-----------------------------------------------------------2--5----------------------------|
A|--3-3-3-3--3--3-3-3-3--3-----------------------------3--5----------------------------------|
E|--------------------------3-3-3-3--3--3-3-3-3--3--5----------------------------------------|

Go back to the verse part and play the same, but when Terry Hall sings "Because the screen star was you" 
Play this

G|---------------------------------------------------------------------------|
D|-----------------------------------2--5--2---------------------------------|
A|-----3-----------3-----------2--5-----------5--2---------------------------|
E|--5-----0--3--5-----0--3--3------------------------------------------------|
Listen out for it, you can hear it.

The rest of the song is just repeating the verse and chorus parts. 


[Verse]

G|---------------------------------------------------------------------------|
D|---------------------------------------------------------------------------|
A|------3-----------3-----------2--5--2-----2--5--2--------------------------|
E|---5-----0--3--5-----0--3--3-----------3-----------------------------------|

G|---------------------------------------------------------------------------|
D|------------------------------------2--4h5--4h5--4h5--4h5------------------|
A|------3-----------3-----------2--5-----------------------------------------|
E|---5-----0--3--5-----0--3--3-----------------------------------------------|


[Chorus]

                                  (This part follows the vocals)
G|------------2--------------4-----------------------------------------------|
D|------2--5-----5-----4--7-----7---5--7--5--4--2--4--2--0-------------------|
A|---3--------------5--------------------------------------------------------|
E|---------------------------------------------------------------------------|

G|------------2--------------4-----------------------------------------------|
D|------2--5-----5-----4--7-----7--5-----------------------------------------|
A|---3--------------5-----------------7--5--2--------------------------------|
E|---------------------------------------------3-----------------------------|



************************************

| h  Hammer-on

************************************

            
            
Suggest correction
Creating personal tab
Creating personal tab
You can edit any tab online and save it as your Personal.

You can edit, replace or remove any tab part or add personal notes – all changes will be seen only by you.

Personal tabs can be accessed anytime from any device, even offline.
Learn more »
Give kudos to tab author, rate the tab!
1 2 3 4 5
comments
print report bad tab
guest
You may want to rate the tab now too:
select rating
Wanna post a correction for this tab? Suggest correction