Oops, an error
Loading. Please wait.

Monkey Man bass

version 2
version 2

Whole song

11,180 views 6 this week
2 commentsread comments
1 2 3 4 5
x 3
add to favorites
×
Save as Personal and add changes to this tab that will be seen only by you. Learn more ›
×
You can save this tab as Personal to edit and correct it or add notes. All changes will be seen only by you. Learn more »
launch autoscroll
font size
0
reset
guitar tuner
edit
Autoscroll
slow
fast
+/-
esc
set tempo
stop
Author
Difficulty
Tabbed By : HARRY DENNIS
e-mail: ROUTEONE@GMAIL.COM

All the other tabs for this song are crap - play it proberly

Tuning: Normal

INTRO
G|----------------------------------------------------------------------------|
D|----------------------------------------------------------------------------|
A|----------------3-3-3-3-5-5-5-5---------------------------3-3-3-3-5-5--5----|
E|---3--3--3-3-3-------------------3---3--3-----3--3--3-3-3----------------3-3|
VERSE / CHORUS 
G|---------------------------------------------------------------------------|
D|----------2-0---------2-0-------------------------2-0----------------------|
A|------------------------------0-2-3-5-5-3-2-0------------------------------|
E|--0-3-----------0-3----------------------------3---------------------------|
OUTRO (SAME AS INTRO)
G|----------------------------------------------------------------------------|
D|----------------------------------------------------------------------------|
A|----------------3-3-3-3-5-5-5-5---------------------------3-3-3-3-5-5--5----|
E|---3--3--3-3-3-------------------3---3--3-----3--3--3-3-3----------------3-3|

            
            
Suggest correction
Creating personal tab
Creating personal tab
You can edit any tab online and save it as your Personal.

You can edit, replace or remove any tab part or add personal notes – all changes will be seen only by you.

Personal tabs can be accessed anytime from any device, even offline.
Learn more »
Give kudos to tab author, rate the tab!
1 2 3 4 5
comments
print report bad tab
2 comments total.
+4 reply
XylonKlaatu 41 Aug 30, 2008 04:31 PM

To me the intro sounds a bit more intricate. Something like...
G|---------------------------------5--------7--------------|
D|-5-0-5-0-5-0-5-0-5-0-5-0-5-----5---5----7---7---5-0-5-0-5|
A|-----------------------------3--------5------------------|
E|---------------------------------------------------------|

And for the...
G|--------------------|
D|--------------------|
A|--0-2-3-5-5-3-2-0---|
E|------------------3-|

...section, I think it sounds better
G|----------------------|
D|--------0-2-0---------|
A|--0-2-3--------3-0----|
E|--------------------3-|

+2 reply
jonnodark2004 135 Jul 21, 2009 03:04 PM

bit bold of you saying other tabs are wrong when yours is mate.
the guy correcting it knows the score

guest
You may want to rate the tab now too:
select rating
Wanna post a correction for this tab? Suggest correction