Oops, an error
Loading. Please wait.

To Kelly Lee tab

version 1
version 1

Whole song

Interactive

688 views 3 this week
no commentswrite comment
1 2 3 4 5
3 more votes to show rating
add to favorites
×
Save as Personal and add changes to this tab that will be seen only by you. Learn more ›
×
You can save this tab as Personal to edit and correct it or add notes. All changes will be seen only by you. Learn more »
launch autoscroll
font size
0
reset
how to read this tab
guitar tuner
edit
Autoscroll
slow
fast
+/-
esc
set tempo
stop
Author
Difficulty
In advance id like to give major thanks to Goo161 for writing out 
the first half of the song and in doing so encouraging me to finish out the tabs for this beautiful song.
The majority if not all of this tab was based off of the live acoustic video
 found here ( https://www.youtube.com/watch?v=iUGfGPydN0A )(Guy on the left).

Thank you and enjoy!


Standard Tuning:

E|--------0--------0--------0--------0-|
B|------0--------0--------0--------0---|
G|----9--------9--------9--------9-----|
D|-11-------11-------11-------11-------|
A|-------------------------------------|
E|-------------------------------------|


E|---0-------0-------0-------0-------0-------0-------0-------0-------|
B|-----7-------7-------7-------7-------9-------9-------9-------9-----|
G|-------6-------6-------6-------6-------8-------8-------8-------8---|
D|-7-------7-------7-------7-------9-------9-------9-------9---------|
A|-------------------------------------------------------------------|
E|-------------------------------------------------------------------|
                                                   *       *

----0---------0---------0---------0--------------------------------------|
------12--------12--------12--------12-----9-------9-------9-------9-----|
---------9---------9---------9---------9-----8-------8-------8-------8---|
-11--------11--------11--------11--------------9-------9-------9-------9-|
-----------------------------------------7-------7-------7-------7-------|
-------------------------------------------------------------------------|x4

*During the 2nd and 4th repeats, he plays something slightly different on the D string,
it should read D|--7---7---7---7---9---9---10---10---; The rest of the strings stay the same

The strumming during the next section is easy to figure out.

E|----------------------12--4---|
B|--7--9--12--5---7--9--12--2---|
G|--6--8--9---3---6--8--9---4---|
D|--7--9--11--4---7--9--11--2---|
A|------------------------------|
E|------------------------------|


E|-------------------------------|
B|--12--9--9--7--12--9--9--8--7--|
G|--9---8--8--6--9---8--8--7--6--|
D|--11--9--9--7--11--9--9--8--7--|
A|-------------------------------|
E|-------------------------------|


E|----------------------------|
B|----12----12----12----12----|
G|---9-----9-----9-----9------|
D|----------------------------|
A|----------------------------|
E|----------------------------|


REPEAT THIS

E|----------------------12--4---|
B|--7--9--12--5---7--9--12--2---|
G|--6--8--9---3---6--8--9---4---|
D|--7--9--11--4---7--9--11--2---|
A|------------------------------|
E|------------------------------|



E|--------------------------------------------------------------------|
B|-----7-------5-------4-----------------7------5-----4-----5---------|
G|---6--------4------2--------1--0----6------4-----2------4-----------|
D|-7--------6------4--------2-------7------6-----4------6-------------|
A|------------------------4-------------------------------------------|
E|----------------------0---------------------------------------------|  X2


E|---------------------------------------------------------------|
B|---7--------5-------4--------------7----5-----4------5---------|
G|---6--------4-------2----1---------6----4-----2------4---------|
D|---7--------6-------4----2---------7----6-----4------6---------|
A|-------------------------4-------------------------------------|
E|---------------------------------------------------------------|  X2


E|-------------------------------------------------------------------|
B|-----7-------7-------5-------5/9-----9-------9-------7-------5-----|
G|---6---6---6---6---4---4---4-------8---8---8---8---6---6---4---6---|
D|-7-------7-------6-------6-------9-------9-------7-------6---------|
A|-------------------------------------------------------------------|
E|-------------------------------------------------------------------|  X4


E|----------------------------------------------------------------------|
B|-------------7--6-------5-------5/9-----9-------9-------7-------5-----|
G|-PAUSE-------6--------4---4---4-------8---8---8---8---6---6---4---6---|
D|----------7---------6-------6-------9-------9-------7-------6---------|
A|----------------------------------------------------------------------|
E|----------------------------------------------------------------------|


E|-------------------------------------------------------------------|
B|-----7-------7-------5-------5/9-----9-------9-------7-------5-----|
G|---6---6---6---6---4---4---4-------8---8---8---8---6---6---4---6---|
D|-7-------7-------6-------6-------9-------9-------7-------6---------|
A|-------------------------------------------------------------------|
E|-------------------------------------------------------------------|


E|-------------|
B|-----7-------|
G|---6---------|
D|-7-----------|
A|-------------|
E|-------------|

END

            
            
Suggest correction
Creating personal tab
Creating personal tab
You can edit any tab online and save it as your Personal.

You can edit, replace or remove any tab part or add personal notes – all changes will be seen only by you.

Personal tabs can be accessed anytime from any device, even offline.
Learn more »
Give kudos to tab author, rate the tab!
1 2 3 4 5
comments
print report bad tab
guest
You may want to rate the tab now too:
select rating
Wanna post a correction for this tab? Suggest correction