Oops, an error
Loading. Please wait.

To Kelly Lee tab

version 2
version 2

Whole song

Interactive

532 views 15 this week
no commentswrite comment
1 2 3 4 5
2 more votes to show rating
add to favorites
×
Save as Personal and add changes to this tab that will be seen only by you. Learn more ›
×
You can save this tab as Personal to edit and correct it or add notes. All changes will be seen only by you. Learn more »
launch autoscroll
font size
0
reset
how to read this tab
guitar tuner
edit
Autoscroll
slow
fast
+/-
esc
set tempo
stop
Author
Difficulty
-------------------------------------------------------------------------------
                             TO KELLY LEE - The Speed Of Sound In Seawater
-------------------------------------------------------------------------------
Tabbed by:DiekRG
E-mail:diekrg@gmail.com
Thanks to Goo161 for the first guitar tab. Here´s my take on it, it´s basically
a dual/guitar transcription from the Guitar Pro version I uploaded.
P.S. This took longer than I thought! And now my back hurts a lot...
The words in CAPITALS are the ones with which the measure starts.
All markers are synced to the original song and this video:
https://www.youtube.com/watch?v=8C2fkkHU2-Y
and you can find a cover of this song here:
https://soundcloud.com/diekrg/to-kelly-lee-cover-the-speed-of-sound-in-seawater
Enjoy!

Tuning: Standard

The electric guitar (on the right) varies a bit throughout the intro.

Acoustic Guitar(L) intro
e|----12--------12--------12--------12--------12--------12--------12--------12-----|
B|-------0---------0---------0---------0---------0---------0---------0---------0---|
G|---------9---------9---------9---------9---------9---------9---------9---------9-|
D|-11--------11--------11--------11--------11--------11--------11--------11--------|
A|---------------------------------------------------------------------------------|
E|---------------------------------------------------------------------------------|
Electric Guitar(R) intro -these two play in sync
e|------------------16--------16--------16--------16--------16--------16--------16-|
B|-------------14--------14--------14--------14--------14--------14--------14------|
G|-----------16---16---16---16---16---16---16---16---16---16---16---16---16---16---|
D|---------------------------------------------------------------------------------|
A|---------------------------------------------------------------------------------|
E|---------------------------------------------------------------------------------|
@0:03
AG(L)
e|----12--------12--------12--------12--------12--------12--------12--------12-----|
B|-------0---------0---------0---------0---------0---------0---------0---------0---|
G|---------9---------9---------9---------9---------9---------9---------9---------9-|
D|-11--------11--------11--------11--------11--------11--------11--------11--------|
A|---------------------------------------------------------------------------------|
E|---------------------------------------------------------------------------------|
EG(R)
e|--------16--------16--------16--------16--------16--------16--------16--------16-|
B|---14--------14--------14--------14--------14--------14--------14--------14------|
G|-16---16---16---16---16---16---16---16---16---16---16---16---16---16---16---16---|
D|---------------------------------------------------------------------------------|
A|---------------------------------------------------------------------------------|
E|---------------------------------------------------------------------------------|x3

Please don´t leAVE... @0:24
AG(L)
e|---0------|   e|---0------|   e|----0------|   e|--------------------------------------------|
B|-----7----|   B|-----9----|   B|------12---|   B|----9---------9---------9---------9---------|
G|-------6--|   G|-------8--|   G|---------9-|   G|------9---------9---------9---------9-------|
D|-7--------|   D|-9--------|   D|-11--------|   D|--------8---------8----------8---------8----|
A|----------|   A|----------|   A|-----------|   A|-9---------9---------9---------9------------|
E|----------|   E|----------|   E|-----------|   E|--------------------------------------------|
EG(R)
e|-------16-|   e|-------14-|   e|--------12-|   e|--------11---------9---------9--------------|
B|---14-----|   B|---12-----|   B|----12-----|   B|----9---------9---------9---------9---------|
G|-16--16---|   G|-14--14---|   G|-13---13---|   G|-11---11---11---11---11---11---11---11-(11)-|
D|----------|   D|----------|   D|-----------|   D|--------------------------------------------|
A|----------|   A|----------|   A|-----------|   A|--------------------------------------------|
E|----------|x4 E|----------|x4 E|-----------|x4 E|--------------------------------------------|

I know they´re SA-CRED... @0:36
AG(L)
e|---0------|   e|---0-------0-------0--------0------|   e|----0------|   
B|-----7----|   B|-----9-------8-------8--------8----|   B|------12---|  
G|-------6--|   G|-------8-------9-------9--------9--|   G|---------9-|   
D|-7--------|   D|-9-------9-------10-------10-------|   D|-11--------|   
A|----------|   A|-----------------------------------|   A|-----------|   
E|----------|   E|-----------------------------------|   E|-----------|   
EG(R)
e|-------16-|   e|-------14------14-------14------14-|   e|--------12-|   
B|---14-----|   B|---12------12------12-------12-----|   B|----12-----|   
G|-16--16---|   G|-14--14--14--14--14---14--14--14---|   G|-13---13---|   
D|----------|   D|-----------------------------------|   D|-----------|   
A|----------|   A|-----------------------------------|   A|-----------|   
E|----------|x4 E|-----------------------------------|   E|-----------|x4 

...if I did NOT fear for us all @0:45
AG(L)
e|-------------------------------------------|
B|----9--------9---------9----------9--------|
G|------6---------6---------6---------6------|
D|--------9----------9---------9---------9---|
A|-7---------7---------7---------7-----------|
E|-------------------------------------------|
EG(R)
e|--------11---------11--------11------------|
B|----9---------9---------9---------9--------|
G|-11---11---11---11---11---11---11---11(11)-|
D|-------------------------------------------|
A|-------------------------------------------|
E|-------------------------------------------|

But something´s HA-ppened... @0:48
AG(L)
e|---0------|   e|----0------------0-----------0-----------0-------|
B|-----7----|   B|-------9------------9-----------9-----------8----|
G|-------6--|   G|----------8------------8-----------8-----------9-|
D|-7--------|   D|-9-----------9------------9-----------9----------|
A|----------|   A|-------------------------------------------------|
E|----------|   E|-------------------------------------------------|
EG(R)
e|-------16-|   e|----------14----------14----------16----------14-|   
B|---14-----|   B|----12----------12----------12----------12-------|   
G|-16--16---|   G|-14----14----14----14----14----14----14----14----|   
D|----------|   D|-------------------------------------------------|   
A|----------|   A|-------------------------------------------------|   
E|----------|x4 E|-------------------------------------------------|   

Since we MET yesterday evening... @0:54
AG(L)
e|----0-----------0-----------0-----------0--------|   e|--------------------------------------------|
B|-------12----------12----------12----------12----|   B|----9--------9---------9----------9---------|
G|----------9-----------9-----------9-----------9--|   G|------9---------9---------9---------9-------|
D|-11----------11----------11----------11----------|   D|--------8----------8---------8---------8----|
A|-------------------------------------------------|   A|-8---------8---------8---------8------------|
E|-------------------------------------------------|   E|--------------------------------------------|
EG(R)
e|----------14----------12----------12----------12-|   e|--------11---------9---------9--------------|
B|----12----------12----------12----------12-------|   B|----9---------9---------9---------9---------|
G|-13----13----13----13----13----13----13----13----|   G|-11---11---11---11---11---11---11---11-(11)-|
D|-------------------------------------------------|   D|--------------------------------------------|
A|-------------------------------------------------|   A|--------------------------------------------|
E|-------------------------------------------------|   E|--------------------------------------------|

This now reads "FIRE"... @1:00
AG(L)
e|---0------|   e|---0-------0-------0-------0------|
B|-----7----|   B|-----9-------8-------8-------8----|
G|-------6--|   G|-------8-------9-------9-------9--|
D|-7--------|   D|-9-------9-------10------10-------|
A|----------|   A|----------------------------------|
E|----------|   E|----------------------------------|
EG(R)
e|-------16-|   e|-------14------14------14------14-|   
B|---14-----|   B|---12------12------12------14-----|   
G|-16--16---|   G|-14--14--14--14--14--14--12--12---|   
D|----------|   D|----------------------------------|   
A|----------|   A|----------------------------------|   
E|----------|x4 E|----------------------------------|

And my trans-CRIP-tion might be off a bit... @1:06
AG(L)
e|----0-----------0-----------0-----------0--------|   e|-------------------------------|
B|-------12----------12----------12----------12----|   B|----9--------9-----------(9)---|
G|----------9-----------9-----------9-----------9--|   G|------6---------6--------(6)---|
D|-11----------11----------11----------11----------|   D|--------9----------9-----(9)---|
A|-------------------------------------------------|   A|-7---------7-------------(7)---|
E|-------------------------------------------------|   E|-------------------------------|
EG(R)
e|----------14----------12----------12----------12-|   e|--------11---------9-----(9)\--|
B|----12----------12----------12----------12-------|   B|----9---------9----------(9)\--|
G|-13----13----13----13----13----13----13----13----|   G|-11---11---11---11---11--(11)\-|
D|-------------------------------------------------|   D|-------------------------------|
A|-------------------------------------------------|   A|-------------------------------|
E|-------------------------------------------------|   E|-------------------------------|

Gather yourself... @1:12
EG(L)
e|----|   e|----|   e|----|   e|---|   e|---|    e|---|    e|-12-|   e|--------|   
B|-7--|   B|-9--|   B|-12-|   B|-9-|   B|-7-|    B|-9-|    B|-12-|   B|-9--(9)-|   
G|-6--|   G|-8--|   G|-9--|   G|-9-|   G|-6-|    G|-8-|    G|-9--|   G|-6--(6)-|   
D|-7--|   D|-9--|   D|-11-|   D|-8-|   D|-7-|    D|-9-|    D|-11-|   D|-9--(9)-|
A|----|   A|----|   A|----|   A|-9-|   A|---|    A|---|    A|----|   A|-7--(7)-| 
E|----|x4 E|----|x4 E|----|x4 E|---|x4 E|---|x4  E|---|x4  E|----|x4 E|--------|x4
EG(R)
e|-16-|   e|-14-|   e|-12-|   e|-9-|   e|-16-|   e|-14-|   e|-12-|   e|-11-(11)-|
B|-14-|   B|-12-|   B|-12-|   B|-7-|   B|-14-|   B|-12-|   B|-12-|   B|-9--(9)--|
G|-16-|   G|-14-|   G|-13-|   G|-9-|   G|-16-|   G|-14-|   G|-13-|   G|-11-(11)-|
D|----|   D|----|   D|----|   D|---|   D|----|   D|----|   D|----|   D|---------|
A|----|   A|----|   A|----|   A|---|   A|----|   A|----|   A|----|   A|---------|
E|----|x4 E|----|x4 E|----|x4 E|---|x4 E|----|x4 E|----|x4 E|----|x4 E|---------|x4
Repeat once more while holding all chords.


Solo! @1:44
EG(L)
e|---------------------------------------------|
B|-12--/9------9---7----12--9--x---9----8--7-x-|
G|-9---/8------8---6----9---8--x---8----7--6-x-|
D|-11--/9---9-(9)--7----11--9--x-9----8----7-x-|
A|---------------------------------------------|
E|---------------------------------------------|

Cover me! @1:52
EG(L)
e|-------------------------------------------|
B|-12--9------9---7----12--9---x---9--8--7-x-|
G|-9---8------8---6----9---8---x---8--7--6-x-|
D|-11--9---9-(9)--7----11--9---x-9----8--7-x-|
A|-------------------------------------------|
E|-------------------------------------------|
EG(R)
e|-------------------------------------------|
B|-----12------------------------------------|
G|-9---8------4---6----8h9-8-------4-----6---|
D|-9---9------6---6----9---9-------6-----6---|
A|-------------------------------------------|
E|-------------------------------------------|

Bass solo @2:00
EG(L)
e|-----------------------------------------------------------------------------------------------------|
B|---12---12---12---12---12---12---12---12---12---12---12---12---12---12---12---12---12---12---12---12-|
G|-----------------------------------------------------------------------------------------------------|
D|-11---11---11---11---11---11---11---11---11---11---11---11---11---11---11---11---11---11---11---11---|
A|-----------------------------------------------------------------------------------------------------|
E|-----------------------------------------------------------------------------------------------------|
EG(R)PM   .    .    .    .    .    .    .    .    .    .    .    .    .    .    .    .    .    .    .
e|-----------------------------------------------------------------------------------------------------|
B|-----------------------------------------------------------------------------------------------------|
G|---9----9----9----9----9----9----9----9----9----9----9----9----9----9----9----9----9----9----9----9--|
D|-----------------------------------------------------------------------------------------------------|
A|-----------------------------------------------------------------------------------------------------|
E|-----------------------------------------------------------------------------------------------------|

I know that you're scared... (from 2:08-2:15 it's the same as "gather yourself" except the ending)
@2:36
EG(L)
e|------12(12)--------12(12)------------------------------------------------------|
B|----12--(12)------12--(12)------9(9)--------9(9)--------9(9)------9-------------|
G|---9----(9)------9----(9)------9-(9)-------9-(9)-------9-(9)-----9--------------|
D|-11-----(11)---11-----(11)---11--(11)----11--(11)----11--(11)--11---------------|
A|--------------------------------------------------------------------------------|
E|--------------------------------------------------------------------------------|
EG(R) Hold notes
e|------12-----------12-----------11----------11----------11--------11------------|
B|----12----12----12-----12----12----12----12----12----12----12---12--12-(12)-----|
G|--13---------13-----------13----------11----------11----------11------------11\-|
D|--------------------------------------------------------------------------------|
A|--------------------------------------------------------------------------------|
E|--------------------------------------------------------------------------------|

@2:42
EG(L) Add a bit of stacatto
e|----------------------------------------------------------------------------------------------------------|
B|---7-----5-----4-------------7-----5-----4(4)---5(5)----7-----5-----4-------------7-----5-----4(4)---5(5)-|
G|--6-----4-----1------1h0----6-----4-----2-(2)--4-(4)---6-----4-----1------1h0----6-----4-----2-(2)--4-(4)-|
D|-7-----6-----2------1-----/7-----6-----4--(4)/6--(6)-/7-----6-----2------1-----/7-----6-----4--(4)/6--(6)-|
A|-------------------4----------------------------------------------------4---------------------------------|
E|----------------------------------------------------------------------------------------------------------|
EG(R)
e|-9-----8----------------------------------------------9-----8-------------------------------------------|
B|-------------12----9----------------------------------------------12----9-------------------------------|
G|-9-----9-----9-------------11----9-----8------6-------9-----9-----9-------------11----9-----8---9--6/---|
D|-------------------8----------------------------------------------------8-------------------------------|
A|---------------------------12----11----9------7---------------------------------12----11--9(9)--11-7/---|
E|--------------------------------------------------------------------------------------------------------|x2

It's all for naught... (Delay solo part I) @3:14
AG(L) Hold notes
e|------------------------------------------------------------------|
B|-----7-------7-------5-------5---/(9)--9-------9\7----7\5----5----|
G|----6---6---6---6---4---4---4---4/(8)-8---8---8------6------4---4-|
D|-7-------7-------6-------6-------/9--------9------7------6--------|
A|------------------------------------------------------------------|
E|------------------------------------------------------------------|
EG(R) Hold notes
e|---------------------------------------------------7/9-7----------|
B|------------------------------7/9-7--------------5-------9-7-5(5)-|
G|-6-----------(6)/9------------------------------------------------|
D|------------------------------------------------------------------|
A|------------------------------------------------------------------|
E|------------------------------------------------------------------|
Delay solo part II @3:22
AG(L) Hold notes
e|------------------------------------------------------------------|
B|-----7-------7-------5-------5---/(9)--9-------9\7----7\5----5----|
G|----6---6---6---6---4---4---4---4/(8)-8---8---8------6------4---4-|
D|-7-------7-------6-------6-------/9--------9------7------6--------|
A|------------------------------------------------------------------|
E|------------------------------------------------------------------|
EG(R) Hold notes
e|-----------------7/9-7-/12-11-------------------------------------|
B|----5-7-7/8-7-5--------------12-----------------------------------|
G|-5-----------------------------11-9-11-8--------------------------|
D|-----------------------------------------9------------------------|
A|-------------------------------------------9-11-12---11---9---7---|
E|------------------------------------------------------------------|

Outro @3:30
AG(L) Hold notes
e|------------------------------------------------------------------|
B|-----7-------7-------5-------5---/(9)--9-------9\7----7\5----5----|
G|----6---6---6---6---4---4---4---4/(8)-8---8---8------6------4---4-|
D|-7-------7-------6-------6-------/9--------9------7------6--------|
A|------------------------------------------------------------------|
E|------------------------------------------------------------------|
EG(R) Hold notes
e|------------------------------------16----------15--14------12----|
B|---------13--------------12----10/12----------11--10-----9------9-|
G|---------11-------------9-----------------------------------------|
D|------------------------------------------------------------------|
A|------------------------------------------------------------------|
E|------------------------------------------------------------------|

AG(L) Hold notes
e|------------------------------------------------------------------|
B|-----7-------7-------5-------5---/(9)--9-------9\7----7\5----5----|
G|----6---6---6---6---4---4---4---4/(8)-8---8---8------6------4---4-|
D|-7-------7-------6-------6-------/9--------9------7------6--------|
A|------------------------------------------------------------------|
E|------------------------------------------------------------------|
EG(R) Hold notes
e|------------------------------------16----------15--14------12----|
B|---------13--------------12----10/12----------11--10-----9------9-|
G|-------11---------------9-----------------------------------------|
D|------------------------------------------------------------------|
A|------------------------------------------------------------------|
E|------------------------------------------------------------------|
@3:46
AG(L) Hold notes
e|------------------------------------------------------------------|
B|---------7-----------5-------5---/(9)--9-------9\7----7\5----5----|
G|------------6---6---4---4---4---4/(8)-8---8---8---6--6------4---4-|
D|--------7----7---6-------6-------/9--------9------\7-----\6-------|
A|------------------------------------------------------------------|
E|------------------------------------------------------------------|
EG(R) Hold notes
e|------------------------------------16----------15--14------12----|
B|---------13--------------12----10/12----------11--10--10-9------9-|
G|---------11-------------9-----------------------------------------|
D|------------------------------------------------------------------|
A|------------------------------------------------------------------|
E|------------------------------------------------------------------|

AG(L) Hold notes
e|------------------------------------------------------------------|
B|-----7-------7-------5-------5---/(9)--9-------9\7----7\5----5----|
G|----6---6---6---6---4---4---4---4/(8)-8---8---8------6------4---4-|
D|-7-------7-------6-------6-------/9--------9------7------6--------|
A|------------------------------------------------------------------|
E|------------------------------------------------------------------|
EG(R) Hold notes
e|-------------------------------------16------15-----14------12----|
B|---------13-(13)-15------12----10/12---12--11--11-10--10/9------9-|
G|-------11---------------9-----------------------------------------|
D|------------------------------------------------------------------|
A|------------------------------------------------------------------|
E|------------------------------------------------------------------|
@4:02
AG(L) Hold notes
e|------------------------------------------------------------------|
B|-----7-------7-------5-------5---/(9)--9-------9\7----7\5----5----|
G|----6---6---6---6---4---4---4---4/(8)-8---8---8---6--6---4--4---4-|
D|-7-------7-------6-------6-------/9--------9-------7------6-------|
A|------------------------------------------------------------------|
E|------------------------------------------------------------------|
EG(R) Hold notes
e|------------------------------------16----------15--14------12----|
B|---------13/15-----------12----10/12----------11--10-----9------9-|
G|-------11---------------9-----------------------------------------|
D|------------------------------------------------------------------|
A|------------------------------------------------------------------|
E|------------------------------------------------------------------|

AG(L) Hold notes
e|------------------------------------------------------------------|
B|-----7-------7-------5-------5---/(9)--9-------9\7----7\5----5----|
G|----6---6---6---6---4---4---4---4/(8)-8---8---8------6------4---4-|
D|-7-------7-------6-------6-------/9--------9------7------6--------|
A|------------------------------------------------------------------|
E|------------------------------------------------------------------|
EG(R) Hold notes
e|------------------------------------16~~--------15~-14~-----12----|
B|---------13--------------12----10/12----------11--10--10/9------9-|
G|-------11---------------9-----------------------------------------|
D|------------------------------------------------------------------|
A|------------------------------------------------------------------|
E|------------------------------------------------------------------|

End
EG(L)
e|---------------------|
B|------------7---(7)--|
G|--------6-------(6)--|
D|----7-----------(7)--|
A|---------------------|
E|---------------------|
EG(R)
e|------------14--(14)-|
B|--------13------(13)-|
G|-12/14----------(14)-|
D|---------------------|
A|---------------------|
E|---------------------|

************************************

| /   slide up
| \   slide down
| h   hammer-on
| p   pull-off
| ~   vibrato
| +   harmonic
| x   Mute note
| b   Bend
| pb  Pre-bend
| br  Bend release
| pbr Pre-bend release
| brb Bend release bend

************************************

            
            
Suggest correction
Creating personal tab
Creating personal tab
You can edit any tab online and save it as your Personal.

You can edit, replace or remove any tab part or add personal notes – all changes will be seen only by you.

Personal tabs can be accessed anytime from any device, even offline.
Learn more »
Give kudos to tab author, rate the tab!
1 2 3 4 5
comments
print report bad tab
guest
You may want to rate the tab now too:
select rating
Wanna post a correction for this tab? Suggest correction