Oops, an error
Loading. Please wait.

All Hail The Heartbreaker tab

version 2
version 2

Whole song

Interactive

45,140 views 9 this week
2 commentsread comments
1 2 3 4 5
x 5
add to favorites
×
Save as Personal and add changes to this tab that will be seen only by you. Learn more ›
×
You can save this tab as Personal to edit and correct it or add notes. All changes will be seen only by you. Learn more »
launch autoscroll
font size
0
reset
how to read this tab
guitar tuner
edit
Autoscroll
slow
fast
+/-
esc
set tempo
stop
Difficulty
intermediate
-------------------------------------------------------------------------------
All Hail The Heartbreaker – The Spill Canvas
-------------------------------------------------------------------------------
Tabbed by: Jeremy Snook
Email: jd_fashizzles@hotmail.com

Awesome song by an awesome band. When you play the very first chord you can play either 
or without the D string open. It sounds good either way.

Tuning: Dropped D (DADGBe)

INTRO:

e|------x--x-------x--------x-------x--x-------x-----------------------------|
B|------x--x-------x--------x-------x--x-------x-----------------------------|
G|--2-2-x—-x-2-2-2-x--2-2-2-x-2-2-2-x--x-2-2-2-x-4-/-6-\-2-------------------|
D|--4-4-x--x-4-4-4-x--4-4-2-x-2-4-4-x--x-4-4-4-x-2-/-4-\-4-0-2~--------------|
A|--5-5-x--x-5-5-5-x--5-5-5-x-5-5-5-x--x-5-5-5-x----------0------------------|
D|------x--x-------x--------x---5-5-x--x-5-5-5-x-----------------------------|

e|------x--x-------x--------x-------x--x-------x-------x---------------------|
B|------x--x-------x--------x-------x--x-------x-------x---------------------|
G|--2-2-x—-x-2-2-2-x--2-2-2-x-2-2-2-x--x-2-2-2-x-2-2-2-x-2-------------------|
D|--4-4-x--x-4-4-4-x--4-4-2-x-2-4-4-x--x-4-4-4-x-4-4-2-x-2-------------------|
A|--5-5-x--x-5-5-5-x--5-5-5-x-5-5-5-x--x-5-5-5-x-5-5-5-x-5-------------------|
D|------x--x-------x--------x---5-5-x--x-5-5-5-x-5-5-5-x-5-------------------|

VERSE:

      I had a notion. . . (Repeat for whole verse)
e|------x--x-------x--------x-------x--x-------x-------x---------------------|
B|------x--x-------x--------x-------x--x-------x-------x---------------------|
G|--2-2-x—-x-2-2-2-x--2-2-2-x-2-2-2-x--x-2-2-2-x-2-2-2-x-2-------------------|
D|--4-4-x--x-4-4-4-x--4-4-2-x-2-4-4-x--x-4-4-4-x-4-4-2-x-2-------------------|
A|--5-5-x--x-5-5-5-x--5-5-5-x-5-5-5-x--x-5-5-5-x-5-5-5-x-5-------------------|
D|------x--x-------x--------x---5-5-x--x-5-5-5-x-5-5-5-x-5-------------------|

CHORUS (ELECTRIC):

   But that day will most likely. . .
e|---x--------------x----------x-------------x-------------------------------|
B|-3-x-3----2-------x--------3-x-3----2------x-------------------------------|
G|-4-x-4----2-----7-x-7------4-x-4----2----7-x-7-----------------------------|
D|-4-x-4----4-----7-x-7------4-x-4----4----7-x-7-----------------------------|
A|-2-x-2----5-----5-x-5------2-x-2----5----5-x-5-----------------------------|
D|---x------------5-x-5--------x-----------5-x-5-----------------------------|

VERSE 2:

    So tonight I’ll sit and. . .

    ^^  V V   V  ^^ V V   V  ^ ^ V V   V VV   V VV   V
e|----------x-----------x------------x------x------x-------------------------|
B|------2-2-x-------2-2-x-0----------x------x------x-------------------------|
G|--22--2-2-x-2--44-4-4-x-4—-2-2-2-2-x-2-22-x-2-22-x-2-----------------------|
D|--44--4-4-x-4--44-4-4-x-4—-4-4-4-4-x-2h44-x-2h44-x-4-----------------------|
A|--55--5-5-x-5--22-2-2-x-2—-5-5-5-5-x-5-55-x-5-55-x-5-----------------------|
D|----------x-----------x----5-5-5-5-x------x------x-------------------------|

That’s all I have time to tab right now, sorry.

| /  slide up
| \  slide down
| h  hammer-on
| p  pull-off
| ~  vibrato
| +  harmonic
| x  Mute note
| ^ Up stroke
| V Down stroke
===============================================================================

            
            
Suggest correction
Creating personal tab
Creating personal tab
You can edit any tab online and save it as your Personal.

You can edit, replace or remove any tab part or add personal notes – all changes will be seen only by you.

Personal tabs can be accessed anytime from any device, even offline.
Learn more »
comments
print report bad tab
2 comments total.
+1 reply
themax101 41 May 09, 2007 01:59 PM

Play with a Capo on 2nd and play as if thats a finger and you've got yourself a great tab

0 reply
laughcrylivedie 75 Jul 13, 2007 05:45 PM

What he said.

guest
Wanna post a correction for this tab? Suggest correction