Oops, an error
Loading. Please wait.

All Over You Tab

version 1
version 1

Whole song

Interactive

12,825 views 3 this week
no commentswrite comment
1 2 3 4 5
please rate
add to favorites
launch autoscroll
font size
0
reset
how to read this tab
guitar tuner
Tab Pro tools
  • play this tab
  • loop segment
  • change instrument
  • show fretboard
  • metronome
×
Best way to learn
"All Over You"
Autoscroll
slow
fast
+/-
esc
set tempo
stop
Contributor
Difficulty
intermediate
-------------------------------------------------------------------------------
                   "All Over You" - The Spill Canvas
-------------------------------------------------------------------------------
Tabbed by: TexasREL
Email: i_got_skillz2007@yahoo.com

Tuning: Standard

Intro/Verse Part 1:
e|----------------------------------------|
B|----------------------------------------|
G|-10--13--11--10--6--8--6----------------|     x4
D|-10--13--11--10--6--8--6----------------|
A|-8---11--9---8---4--6--4----------------|
E|----------------------------------------|

Verse Part 2:
e|----------------------------------------|
B|----------------------------------------|
G|-------6--------------------------------|     x1
D|-8--4--6--4-----------------------------|
A|-8--4--4--4-----------------------------|
E|-6--2-----2-----------------------------|

Chorus:
e|----------------------------------------|
B|----------------------------------------|
G|----------------------------------------|     x2
D|-6--8--4--------------------------------|
A|-6--8--4--------------------------------|
E|-4--6--2--------------------------------|

Verse Part 1 x1

Verse Part 2 x2

Chorus x4

Bridge:
e|----------------------------------------|
B|----------------------------------------|
G|----6--8--13--11--10--------------------|     x4
D|-8--6--8--13--11--10--------------------|
A|-8--4--6--11--9---8---------------------|
E|-6--------------------------------------|

Fill after the Bridge:
e|----------------------------------------|
B|----------------------------------------|
G|----------------------------------------|     x1
D|----------------------------------------|
A|-8---6----------------------------------|
E|---------9---8--------------------------|

Chorus x4

Intro x2

End song on:
e|----------------------------------------|
B|----------------------------------------|
G|----------------------------------------|
D|-10-------------------------------------|
A|-10-------------------------------------|
E|-8--------------------------------------|


===============================================================================
comments
We did not receive enough feedback on this tab! Please rate:
print report bad tab
1 2 3 4 5
I want to post or [tab]
guest
You may want to rate the tab now too:
select rating
Please do not post tabs as comments. Select "correction" instead!