Oops, an error
Loading. Please wait.

All Over You Tab

version 3
version 3

Whole song

Interactive

54,954 views 6 this week
10 commentsread comments
1 2 3 4 5
accurate
x 14
add to favorites
launch autoscroll
font size
0
reset
how to read this tab
guitar tuner
Tab Pro tools
  • play this tab
  • loop segment
  • change instrument
  • show fretboard
  • metronome
Autoscroll
slow
fast
+/-
esc
set tempo
stop
Contributor
Difficulty
novice
Mostly I worked off other people's tabs. But they forgot a few parts and didn't
have a break down of which strumming goes where. Also, I didn't like the way they
had it tuned. This way is much easier. Hope you all enjoy.

Standard Tuning, capo on the 1st fret.


Verse riff 1
E|-------------------------------------|
B|-------------------------------------|
G|-------------------------------------|
D|-2-2-2-2-2-2-2-2-5-5-5-3-3-3-2-2-----|
A|-0-0-0-0-0-0-0-0-0-0-0-0-0-0-0-0-----|
E|-------------------------------------|

E|-------------------------------------|
B|-------------------------------------|
G|-------------------------------------|
D|-----------------2-2-2-0-0-0-2-2-----|
A|-3-3-3-3-3-3-3-3-3-3-3-3-3-3-3-3-----|
E|-1-1-1-1-1-1-1-1-1-1-1-1-1-1-1-1-----|

Verse riff 2
E|-------------------------------------|
B|-------------------------------------|
G|-------------------------------------|
D|-2-2-2-2-2-2-2-2-5-5-5-3-3-3-2-2-----|
A|-3-3-3-3-3-3-3-3-3-3-3-3-3-3-3-3-----|
E|-------------------------------------|

E|-------------------------------------|
B|-------------------------------------|
G|-------------------------------------|
D|-----------------2-2-2-0-0-0-2-2-----|
A|-3-3-3-3-3-3-3-3-3-3-3-3-3-3-3-3-----|
E|-1-1-1-1-1-1-1-1-1-1-1-1-1-1-1-1-----|

Verse riff 3
E|-------------------------------------|
B|-------------------------------------|
G|-------------------------------------|
D|-2----2--2----2----------------------|
A|-0----0--0----0---3----3--3----3-----|
E|------------------1----1--1----1-----|

E|-------------------------------------|
B|-------------------------------------|
G|-------------------------------------|
D|-5----5--5----5----------------------|
A|-3----3--3----2---3----3--3----3-----|
E|------------------1----1--1----1-----|

Verse riff 4
E|-------------------------------------|
B|-------------------------------------|
G|-------------------------------------|
D|-2--x16------------5--x15--5---------|
A|-0--------3--x16---3-------2---3--x16|
E|----------1--------------------1-----|

Chorus
E|-------------------------------------|
B|-------------------------------------|
G|-------------------------------------|
D|---------2--x8-----------------------|   
A|-5--x8---0-------3--x16--------------|
E|-3---------------1-------------------|

Bridge (distortion)
"Why can't you just love me back?..."
E|-----------------------------------------------------------------|
B|-----------------------------------------------------------------|
G|-----------------------------------------------------------------|
D|------------------------0-0-0-5-5-3-3-3-3-3-3-3-3-2-2-2-2-2-2-2-2|
A|--0-0-0-0-0-0-0-0-3-3-3------------------------------------------|
E|-----------------------------------------------------------------|

Bridge 2
E|-----------------------------------------------------------------|
B|-----------------------------------------------------------------|
G|-----------------------------------------------------------------|
D|------------------------0-0-0-5-5-3-3-3-3-3-3-3-3-2-2-2-2-2-0----|
A|--0-0-0-0-0-0-0-0-3-3-3---------------------------------------3-2|
E|-----------------------------------------------------------------|

Fade out 1 (much softer strumming but exactly like verse riff 1)
E|-------------------------------------|
B|-------------------------------------|
G|-------------------------------------|
D|-2-2-2-2-2-2-2-2-5-5-5-3-3-3-2-2-----|
A|-0-0-0-0-0-0-0-0-0-0-0-0-0-0-0-0-----|
E|-------------------------------------|

Fade out 2 (hold)
E|-------------------------------------|
B|-------------------------------------|
G|-------------------------------------|
D|-2-----------------------------------|
A|-0-----------------------------------|
E|-------------------------------------|

Verse riff 1 x3
Verse riff 2
Verse riff 3
Chorus x2
Verse riff 1
Verse riff 3
Verse riff 4
Chorus x4
Bridge x3
Bridge 2
Chorus x4
Fade out 1
Fade out 2
comments
print report bad tab
10 comments total. Showing first comments.
0 reply
AgentHappyDay wrote on March 9 2008, 03:10 am

good job, 5 stars

0 reply
themostdanger wrote on March 26 2008, 12:25 am

orgasmically amazing

perfection

0 reply
themostdanger wrote on March 26 2008, 12:26 am

although i wish sumwun would tell me the struming pattern

I want to post or [tab]
guest
You may want to rate the tab now too:
select rating
Please do not post tabs as comments. Select "correction" instead!