Oops, an error
Loading. Please wait.

All Over You tab

version 5
version 5

Interactive

3,401 views 3 this week
1 commentread comment
1 2 3 4 5
1 last vote to show rating
add to favorites
×
Save as Personal and add changes to this tab that will be seen only by you. Learn more ›
×
You can save this tab as Personal to edit and correct it or add notes. All changes will be seen only by you. Learn more »
launch autoscroll
font size
0
reset
how to read this tab
guitar tuner
edit
Autoscroll
slow
fast
+/-
esc
set tempo
stop
Artist: The Spill Canvas
Song: All Over You
Album: No Really, I'm Fine
Tabber: painkillerz_57
E-mail: painkillerz_57@yahoo.com
Myspace URL: myspace.com/metal_4_lyfe

Tuning: D A D G B E
Capo 1st Fret


Intro/Main Riff
"Yeah he's a looker..."
|---------------------------------------------------------------|x4
|---------------------------------------------------------------|
|---------------------------------------------------------------|
|----2222222255533322-------------------------------------------|
|----0000000000000000-----3333333377755533----------------------|
|-------------------------3333333333333333----------------------|

Verse
"I am easily make-believe..."
|--------------------------------------------------------------------|
|--------------------------------------------------------------------|
|--------------------------------5---5---5----5----------------------|
|-7---7---7----7-3----3---3----3-5---5---5----5----3---3---3---3333--|
|-7---7---7----7-3----3---3----3-3---3---3----3----3---3---3---3333--|
|-7---7---7----7-3----3---3----3-------------------3---3---3---3333--|





Chorus
"I gotta feel you in my bones again..."
|----------------------------------------------------------------|x2
|--88888888-------1010101010101010-----6666666666666666----------|
|--77777777-------99999999-------------5555555555555555----------|
|--55555555-------77777777-------------3333333333333333----------|
|--55555555-------77777777-------------3333333333333333----------|
|--55555555-------77777777-------------3333333333333333----------|

Main Riff/Post-Chorus
|---------------------------------------------------------------|
|---------------------------------------------------------------|
|---------------------------------------------------------------|
|----2222222255533322-------------------------------------------|
|----0000000000000000----3333333377755533-----------------------|
|------------------------3333333333333333-----------------------|





Verse
"In my dayreams, in my sleep..."
|--------------------------------------------------------------------|
|--------------------------------------------------------------------|
|--------------------------------5---5---5----5----------------------|
|-7---7---7----7-3----3---3----3-5---5---5----5----3---3---3---3333--|
|-7---7---7----7-3----3---3----3-3---3---3----3----3---3---3---3333--|
|-7---7---7----7-3----3---3----3-------------------3---3---3---3333--|

"Just please try..."
e|------------------------------------------------------|
B|------------------------------------------------------|
G|-----------------------5~~----------------------------|
D|-----7~~------3~~------5~~-------3~~-------3333-------|
A|-----7~~------3~~------3~~-------3~~-------3333-------|
D|-----7~~------3~~----------------3~~-------3333-------|





Chorus
|----------------------------------------------------------------|x4
|--88888888-------1010101010101010-----6666666666666666----------|
|--77777777-------99999999-------------5555555555555555----------|
|--55555555-------77777777-------------3333333333333333----------|
|--55555555-------77777777-------------3333333333333333----------|
|--55555555-------77777777-------------3333333333333333----------|





Bridge
|----------------------------------------------------------|x4
|----------------------------------------------------------|
|------2----55555555/77777777/999999/12/1010101010101010---|
|----2-----------------------------------------------------|
|--0--------33333333/55555555/777777/10/88888888-----------|
|----------------------------------------------------------|

then
|--------------------|
|--------------------|
|------9/7/5---------|
|--------------------|
|------7/5/3---------|
|--------------------|





Final Chorus
|----------------------------------------------------------------|x4
|--88888888-------1010101010101010-----6666666666666666----------|
|--77777777-------99999999-------------5555555555555555----------|
|--55555555-------77777777-------------3333333333333333----------|
|--55555555-------77777777-------------3333333333333333----------|
|--55555555-------77777777-------------3333333333333333----------|





Main Riff/Outro
|----------------------------------------------|x2
|----------------------------------------------|
|----------------------------------------------|
|----2222222255533322--------------------------|
|----0000000000000000--3333333377755533--------|
|----------------------3333333333333333--------|





End On
|-----------------------|
|-----------------------|
|------2~~--------------|
|-----2~~---------------|
|----0~~----------------|
|-----------------------|

            
            
Suggest correction
Creating personal tab
Creating personal tab
You can edit any tab online and save it as your Personal.

You can edit, replace or remove any tab part or add personal notes – all changes will be seen only by you.

Personal tabs can be accessed anytime from any device, even offline.
Learn more »
Give kudos to tab author, rate the tab!
1 2 3 4 5
comments
print report bad tab
1 comment total.
0 reply
goten18 31 Feb 08, 2009 09:19 PM

pretty bad ass

only it is played in half step with a capo

and you have it dropped
the 7 on the is the same note as the 2 on the d
so you dont need to really stretch that far.

but you actually have a decent sounding chorus

4*'s

guest
You may want to rate the tab now too:
select rating
Wanna post a correction for this tab? Suggest correction