Oops, an error
Loading. Please wait.

Black Dresses Tab

version 1
version 1

Intro

Whole song

5,707 views 1 this week
4 commentsread comments
1 2 3 4 5
accurate
x 5
add to favorites
launch autoscroll
font size
0
reset
how to read this tab
guitar tuner
Tab Pro tools
  • play this tab
  • loop segment
  • change instrument
  • show fretboard
  • metronome
×
Best way to learn
"Black Dresses"
Autoscroll
slow
fast
+/-
esc
set tempo
stop
Difficulty
novice
aNDREW bAnAs

`STANDARD TUNING

THIS IS ALL I COULD FIGURE OUT
I COMPARED IT TO THE OTHER INTRO AND IT SOUNDED BETTER TO ME
~=slide

slide to first CHORD palm mute chords2x
E---------------------------------------------------------------------------|
B-----7-7----7~8~7~0--3-3-3~5~3~0-------------------------------------------|
G-----0-0-------------0-0----------2-2--2~4--2~4--4~~~7~~~4-----------------|
D-----5-5-------------0-0----------0-0--------------------------------------|
A-----7-7-------------5-5----------3-3--------------------------------------|
E---------------------------------------------------------------------------|


-------------------------------------|
-------------------------------------|
-------------------------------------|
-4~~5~~4~~5~~7-----------------------|
-------------------------------------|
-------------------------------------|


SLIDE INTO FIRST CHORD2X
-------------------------------------------------------------|
-----7-7-7----3-3-9------------------------------------------|
-----0-0-0----0-0-0--2-2-2-0-2-4-2-0-2-4-2-0-----------------|
--5--5-5-5--0-0-0-0--0-0-0-0-0-0-0-0-0-0-0-0-----------------|
--7--7-7-7--5-5-5-5--3-3-3-3-3-3-3-3-3-3-3-3-----------------|
-------------------------------------------------------------|
comments
print report bad tab
4 comments total. Showing first comments.
0 reply
iheartmusic53 wrote on October 3 2006, 10:45 pm

best tab i've seen so far.
but still pretty far away.
thank you.

-1 reply
remy2828 wrote on December 21 2006, 10:18 pm

tuning. open e minor

e
b
g
e
b
e

0 reply
wongacaster wrote on October 4 2007, 10:35 am

good tab man.
really helping me tab it out.
good stuff.

I want to post or [tab]
guest
You may want to rate the tab now too:
select rating
Please do not post tabs as comments. Select "correction" instead!