Oops, an error
Loading. Please wait.

Connect The Dots Tab

version 2
version 2

Whole song

551 views 1 this week
no commentswrite comment
1 2 3 4 5
please rate
add to favorites
launch autoscroll
font size
0
reset
how to read this tab
guitar tuner
Tab Pro tools
  • play this tab
  • loop segment
  • change instrument
  • show fretboard
  • metronome
×
Best way to learn
"Connect The Dots"
Autoscroll
slow
fast
+/-
esc
set tempo
stop
all parts except outro (hopefully someone will finally come up with it)

Capo at 1st fret (all relative to capo)

Intro / Verse:

(Gtr. 1)
e|--------------------------0----0---------------------------------0-------|
B|-3----------3---2h3p2p0---2------0---3---------3---2h3p2p0---------0-----|
G|-2h4--------2h4--------2--2--2----2--2h4-------2h4--------2----2----2----|
D|-4-----5-4--4-----------4-2-2-2-2----4-----5-4-4-----------4--2-2-2------|
A|-2----5-----2-------------0----------2----5----2-------------0-----------|
E|-----3-----------------------------------3-------------------------------|
    "If your feet hurt..."

Chorus:

e|---------------0----------------------------------|
B|--------------------------3-2h3p2p0---------------|
G|---0-2-0-----2---2-----2h4---------2------2-------|
D|--0-0-0-0---2-2-2-2---4-------------4---4---4-----|
A|-----------0---------2-----------------4-4-4-4----|
E|-3------------------------------------2-----------|
    "Don't you just love..."


Interlude:

(Gtr. 1 plays intro over this)
(Gtr. 2)
e|-----------------------------------------------------|
B|-------------------------------------------10--------|
G|-18-18-18-18-18\-14-14-14\11-11-11\-9--9/11----------|
D|-----------------------------------------------------|
A|-----------------------------------------------------|
E|-----------------------------------------------------|

e|--------------------------------------------------------------------|
B|--------------------------------------------------------------------|
G|-18-18-18-18-18\-14-14-14\11-11-11\-9--9\4/6/9----------------------|
D|----------------------------------------------9-7~---9/11-9-7-7h9---|
A|--------------------------------------------------------------------|
E|--------------------------------------------------------------------|


Solo
e|-----------------------------------------------------------------------------|
B|------10------10-----10\8----8--8-8\6—5h6/10---------------------------------|
G|-9h11------11------9-------9---9-9-------------------------------------------|
D|-----------------------------------------------------------------------------|
A|-----------------------------------------------------------------------------|
E|-----------------------------------------------------------------------------|

e|-----------------------------------------------------------------------------|
B|------10------10-----10\8----8--8-8\6—-66h8p6\4------------------------------|
G|-9h11------11------9-------9---9-9-------------------------------------------|
D|-----------------------------------------------------------------------------|
A|-----------------------------------------------------------------------------|
E|-----------------------------------------------------------------------------|

e|-----------------------------------------------------------------------------|
B|------10------10-----10\8----8--8-8\6—5h6/10---------------------------------|
G|-9h11------11------9-------9---9-9-------------------------------------------|
D|-----------------------------------------------------------------------------|
A|-----------------------------------------------------------------------------|
E|-----------------------------------------------------------------------------|

e|-----------------------------------------------------------------------------|
B|------10------10-----10\8----8--8-8\6—5h6/8----------------------------------|
G|-9h11------11------9-------9---9-9-------------------------------------------|
D|-----------------------------------------------------------------------------|
A|-----------------------------------------------------------------------------|
E|-----------------------------------------------------------------------------|
comments
We did not receive enough feedback on this tab! Please rate:
print report bad tab
1 2 3 4 5
I want to post or [tab]
guest
You may want to rate the tab now too:
select rating
Please do not post tabs as comments. Select "correction" instead!