Oops, an error
Loading. Please wait.

Home Sick intro tab

version 1
version 1

Intro

Whole song

1,718 views 1 this week
4 commentsread comments
1 2 3 4 5
2 more votes to show rating
add to favorites
×
Save as Personal and add changes to this tab that will be seen only by you. Learn more ›
×
You can save this tab as Personal to edit and correct it or add notes. All changes will be seen only by you. Learn more »
launch autoscroll
font size
0
reset
how to read this tab
guitar tuner
edit
Autoscroll
slow
fast
+/-
esc
set tempo
stop
Difficulty
intermediate
Tabbed by:nik_bates@hotmail.com
Song:Home Sick.
Artist: The Spill Canvas
Tuning: Drop d tuning.

This is my very first tab so if it isnt right then just tell me some correction or send me an
email.

Intro:

E|-3-3---------------4p2p0--0-0------------|
A|-3-3----------4p2p0-------0-0---5-5------|
D|-3-3-----4p2p0------------0-0---7-7------|
G|--------------------------------7-7------|
B|-----------------------------------------|
E|-----------------------------------------|

E|-3-3---------------4p2p0--0-0-x-x-2-33---|
A|-3-3----------4p2p0-------0-0-x-x-2-33---|
D|-3-3-----4p2p0------------0-0-x-x-2-33---|
G|-----------------------------------------|
B|-----------------------------------------|
E|-----------------------------------------|
you do the intro twice then this other part comes 
in that I havent tabbed yet  but i will soon.

            
            
Suggest correction
Creating personal tab
Creating personal tab
You can edit any tab online and save it as your Personal.

You can edit, replace or remove any tab part or add personal notes – all changes will be seen only by you.

Personal tabs can be accessed anytime from any device, even offline.
Learn more »
Give kudos to tab author, rate the tab!
1 2 3 4 5
comments
print report bad tab
4 comments total. Showing first comments.
+1 reply
Ledleppard1975 10 Apr 06, 2006 04:45 PM

-------------------------------------
-------------------------------------
-------------------------------------
--3-3-----4p2p0----------------------
--3-3------------4p2p0---------------
--3-3-------------------4p2p0--------

You had it upside down mang.

0 reply
shinebrighter 10 Jun 13, 2006 05:53 PM

this tab is write so its upside down
but if that one girl who says its upside down could read the little letters on the side and learn about D tuning(cause everyone who knows anything about guitar knows about Dtuning) then she would know how to play it and ledleppard1975 corrected it for all you who cant read

0 reply
Nataku 580 Aug 18, 2006 03:55 PM

maybe the transcriber was left handed.

guest
Wanna post a correction for this tab? Suggest correction