Oops, an error
Loading. Please wait.

Lullaby Tab

version 1
version 1

Whole song

47,411 views 9 this week
3 commentsread comments
1 2 3 4 5
accurate
x 6
add to favorites
launch autoscroll
font size
0
reset
how to read this tab
guitar tuner
Tab Pro tools
  • play this tab
  • loop segment
  • change instrument
  • show fretboard
  • metronome
×
Best way to learn
"Lullaby"
Autoscroll
slow
fast
+/-
esc
set tempo
stop
Contributor
Difficulty
Capo
novice
2nd fret
                         The Spill Canvas- Lullaby


         h=hammer on                           Tuning: Drop D
         p=pull off                            Capo: 2nd fret
         sl=slide

intro
       D2                        Em      G    Em   A   D2              D2
e|---------------------------------------3----------------------------------|
B|-----3---------------------------------3---------2----3--------------3----|
G|-----2-------------------------------------------2----2--------------2----|
D|-----------2-h4-2-h4-2-p0-------2------------2---2------------------------|
A|---------------------------2----2------5-----2----------------------------|
D|--------------------------------2------5-----2-----------2sl--4--0--------|


verse 1:

D2                                             Em
its the way that you blush when youre nervous,

                                        G
its your ability to make me earn this. i know that youre tired,  

      Em      A           D2
just let me sing you to sleep.
 
    D2                   D2
e|-----------------------------
B|---3--------------------3----|
G|---2--------------------2----|
D|-----------------------------|
A|-----------------------------|
D|--------2sl---4----0---------|


verse 2:

D2                                   Em
its about how you laugh out of pity,


cause lets be honest, im not really that funny.

 G                          Em        A            D2     Bsus
i know that youre shot, just let me sing you to sleep.


chorus:
     Bsus    G    Em   G    Bsus   G    Em    A
e|-----------3---------3-----------3---------------|
B|-----------3---------3-----------3----------2----|
G|-----4----------------------4---------------2----|  (just showing chords,
D|-----4-----------2----------4----------2----2----|    play whats below)
A|-----2-----5-----2---5------2----5-----2---------|
D|-----------5-----2---5-----------5-----2---------|

Bsus         G        Em                      G           Bsus
if you need anything,just say the word, i mean anything.

                 G                       Em
rest assured if you start to doze, then ill tuck you in,

          A                         D2
plant my lips there your necklaces close.



       D2                        Em      G    Em   A   D2              D2
e|---------------------------------------3----------------------------------|
B|-----3---------------------------------3---------2----3--------------3----|
G|-----2-------------------------------------------2----2--------------2----|
D|-----------2-h4-2-h4-2-p0-------2------------2---2------------------------|
A|---------------------------2----2------5-----2----------------------------|
D|--------------------------------2------5-----2-----------2sl--4--0--------|


verse 3:

D2
its those pills that you dont need to take,

   Em
medicating perfection, now thats a mistake.

    G                          Em     A            D2
i know that youre spent, just let me sing you to sleep.


    D2                   D2
e|-----------------------------|
B|---3--------------------3----|
G|---2--------------------2----|
D|-----------------------------|
A|-----------------------------|
D|--------2sl---4----0---------|


Verse 4:

D2                                             Em
its your finger and how im wrapped around it.


its your grace, and how it keeps me grounded.

   G                         Em      A          D2
i know that youre weak just let me sing you to sleep.


---back to chorus----


Bridge:

Bsus                      G              
while you were sleeping i figured out everything,

Em                     A                          Bsus
i was constructed for you and you were molded for me. 

                     G                         
now i feel your name, coursing through my veins.

Em                      A                             D2    Em  G  Bsus
you shine so bright its insane, you put the sun to shame.



ending Chorus:


Bsus         G        Em                      G           Bsus
if you need anything,just say the word, i mean anything.

                 G                       Em
rest assured if you start to doze, then ill tuck you in,

          A                             Bsus
plant my lips there your necklaces...... 


Bsus         G        Em                      G           Bsus
if you need anything,just say the word i mean, anything.

                 G                       Em
rest assured if you start to doze, then ill tuck you in,

          A                         D2
plant my lips there your necklaces close.


strum pattern for verse:  DU-DU-D---|DU-DU-D---|

strum pattern for chorus: D-DUDU|D-DUDU


*amazing song*

this is my first tab so leave me some comments and if questions e-mail me at 
xxxdefeatthemxxx@aol.com  thanks!!!!
comments
print report bad tab
3 comments total.
0 reply
guitarkid247 wrote on December 17 2007, 12:00 am

sorry....its incorrect....

0 reply
jordan0210 wrote on February 23 2008, 03:31 am

isnt the capo supposed to be on the 3?

0 reply
vanshin wrote on April 8 2008, 07:19 am

needs some work.

I want to post or [tab]
guest
You may want to rate the tab now too:
select rating
Please do not post tabs as comments. Select "correction" instead!