Oops, an error
Loading. Please wait.

Polygraph Right Now tab

version 2
version 2

Whole song

Interactive

5,370 views 1 this week
3 commentsread comments
1 2 3 4 5
1 last vote to show rating
add to favorites
×
Save as Personal and add changes to this tab that will be seen only by you. Learn more ›
×
You can save this tab as Personal to edit and correct it or add notes. All changes will be seen only by you. Learn more »
launch autoscroll
font size
0
reset
how to read this tab
guitar tuner
edit
Autoscroll
slow
fast
+/-
esc
set tempo
stop
Difficulty
intermediate
INTRO

D# -----------------------------------------------------------------|
A# -----3-----------------------------------------------------------|
F# -----2--2--4-----------------------------------------------------|
C# -4---4--2--4-----444-4-4-----------------------------------------|
G# -4------0--2-----444-4-4-----------------------------------------|
D# -2---------------222-2-2-----------------------------------------|
                    PM PM PM

VERSE

D# ----------------------------------------------------------------|
A# --------3-------------------------------------------------------|
F# --------2---------2--4------------------------------------------|
C# --4-4---4---4-4---2--4------------------------------------------|
G# --4-4-------4-4---0--2------------------------------------------|
D# --2-2-------2-2-------------------------------------------------|

CHORUS

D# -----------------------------------------------------------------|
A# ------3----------------------------------------------------------|
F# ------2---2---4--------------------------------------------------|
C# --4---4---2---4--------------------------------------------------|
G# --4-------0---2--------------------------------------------------|
D# --2--------------------------------------------------------------|

BRIDGE (BREAKDOWN)

D# -----------------------------------------------------------------|
A# ------3---2------------------------------------------------------|
F# ------2---1------------------------------------------------------|
C# --4---4---3---2--------------------------------------------------|
G# --4-----------2--------------------------------------------------|
D# --2-----------0--------------------------------------------------|

THEN THE VERSE AGAIN

THEN THE CHORUS AGAIN
Suggest correction
Creating personal tab
Creating personal tab
You can edit any tab online and save it as your Personal.

You can edit, replace or remove any tab part or add personal notes – all changes will be seen only by you.

Personal tabs can be accessed anytime from any device, even offline.
Learn more »
Give kudos to tab author, rate the tab!
1 2 3 4 5
comments
print report bad tab
3 comments total.
0 reply
Nataku 580 Aug 26, 2006 01:01 PM

D# -----------------------------------------------------------------|
A# -----3-----------------------------------------------------------|
F# -----2--2--4-----------------------------------------------------|
C# -4---4--2--4-----444-4-4-----------------------------------------|
G# -4------0--2-----444-4-4-----------------------------------------|
D# -2---------------222-2-2-----------------------------------------|
PM PM PM

that XX324X should be a X755XX

0 reply
Nataku 580 Aug 26, 2006 01:03 PM

and there is a D-chord in there when he says "[i bleed..] confidence"

0 reply
Alexishxc1337 368 Apr 08, 2008 06:42 PM

No, it shouldn't.
You can clearly hear the bottom string ringing out in both the acoustic version and the studio version.

guest
Wanna post a correction for this tab? Suggest correction