Oops, an error
Loading. Please wait.

Polygraph Right Now Acoustic tab

version 3
version 3

Whole song

Interactive

21,796 views 3 this week
9 commentsread comments
1 2 3 4 5
x 10
add to favorites
×
Save as Personal and add changes to this tab that will be seen only by you. Learn more ›
×
You can save this tab as Personal to edit and correct it or add notes. All changes will be seen only by you. Learn more »
launch autoscroll
font size
0
reset
how to read this tab
guitar tuner
edit
Autoscroll
slow
fast
+/-
esc
set tempo
stop
Author
Difficulty
----------------------------------------------------------------------------
                Polygraph, Right Now (acoustic) - The Spill Canvas
----------------------------------------------------------------------------


Tabbed by: MCiccone
Email: McDaddy0945@aol.com

* This is off of the Youtube Video where Nick plays the song both solo and acoustic.  I 
sure this is how he plays it live, it sounds alot better than the album version.

Tuning: Standard

Intro:

Strum each chord once, then tap four times in between each chord in accordance to my 
its exact.

                 t t t t    t t t t       t t t t       t t t t
e|-x-x-|     |-2----------5---------------------------2-------------|
B|-x-x-|     |-2----------5-------------2-------------2-------------|
G|-x-x-|     |-2----------6-------------2-------------4-------------|
D|-x-x-| x1  |-4----------7-------------2-------------4-------------|
A|-x-x-|     |-4----------7---------------------------2-------------|
E|-x-x-|     |-2----------5---------------------------2-------------|
                   Fate...legant..........She...........And
               More.......ce..........now............party

Bridge 1:


e|--x-x-x--2-2-x-x-x---------------| - The key is tempo, you have to
B|--x-x-x--2-2-x-x-x---------------|   listen to the song to get it down
G|--x-x-x--2-2-x-x-x---------------|   or improvise on your own.
D|--x-x-x--4-4-x-x-x---------------|
A|--x-x-x--4-4-x-x-x---------------|
E|--x-x-x--2-2-x-x-x---------------|

Verse 1:

* Everything is tabbed exactly according to time!

e|--2-2-x--------------2-----------2-2-x-------------2--------------------|
B|--2-2-x--------------3-----------2-2-x---2---------2--------------------|
G|--2-2-x--------------2-----------2-2-x---2---------4--------------------|
D|--4-4-x--------------x-----------4-4-x---2---------4--------------------|
A|--4-4-x--------------x-----------4-4-x-------------2--------------------|
E|--2-2-x--------------x-----------2-2-x-------------2--------------------|
         I wanna.......Room......true......Darling...lie, lie
         I wanna.......Heart....apart.....Scared.....find-out

Chorus:

e|--2--2-----2----------| - This part is self-explanatory, these are
B|--2--3--2--2----------|   the chords that coincide with the chorus
G|--2--2--2--4----------|
D|--4-----2--4----------|
A|--4--------2----------|
E|--2--------2----------|

Bridge 2:

e|--2-------------------| - These are the chords for the "solo" there is
B|--2----5--3--2--------|   no way to tab this rythm, just listen or
G|--2----x--x--2--------|   improvise.  Put emphasis on the lower
D|--4----6--4--2--------|   strings (E, A, D)
A|--4----4--2-----------|
E|--2----0--0-----------|

Verse 2:

e|--2-2-x--------------2-----------2-2-x-------------2--------------------|
B|--2-2-x--------------3-----------2-2-x---2---------2--------------------|
G|--2-2-x--------------2-----------2-2-x---2---------4--------------------|
D|--4-4-x--------------x-----------4-4-x---2---------4--------------------|
A|--4-4-x--------------x-----------4-4-x-------------2--------------------|
E|--2-2-x--------------x-----------2-2-x-------------2--------------------|
        According.....Click.....know it...Angel......hidding
        If............another......lovers..I.......atleast

Chorus:

e|--2--2-----2----------| - Go straight into the Chorus chords from the
B|--2--3--2--2----------|   verse.  There is no pause in between.
G|--2--2--2--4----------|
D|--4-----2--4----------|
A|--4--------2----------|
E|--2--------2----------|

Bridge 3:

e|--2-------------------| - Same as bridge two, jsut play softer.
B|--2----5--3--2--------|
G|--2----x--x--2--------|
D|--4----6--4--2--------|
A|--4----4--2-----------|
E|--2----0--0-----------|

Chorus:

e|--2--2-----2----------|
B|--2--3--2--2----------|
G|--2--2--2--4----------|
D|--4-----2--4----------|  x 2
A|--4--------2----------|
E|--2--------2----------|

* After you play the chorus twice, the song is over, there is no outro

| x  Mute note
============================================================================

            
            
Suggest correction
Creating personal tab
Creating personal tab
You can edit any tab online and save it as your Personal.

You can edit, replace or remove any tab part or add personal notes – all changes will be seen only by you.

Personal tabs can be accessed anytime from any device, even offline.
Learn more »
comments
print report bad tab
9 comments total. Showing first comments.
0 reply
FallenSyndrome 320 Dec 28, 2006 02:32 PM

its tuned down half step

0 reply
RyanNewYork 10 Feb 02, 2007 03:14 AM

pretty good tab, the intro sounds a little weird tho??

0 reply
CMJPEC 239 Feb 02, 2007 10:18 AM

Yeah, the explanation is a little wierd but if you watch the video on youtube, it'll make a little more sense i think

guest
You may want to rate the tab now too:
select rating
Wanna post a correction for this tab? Suggest correction